ISO-10303-21;
HEADER;
/* Generated by software containing ST-Developer
 * from STEP Tools, Inc. (www.steptools.com) 
 */

FILE_DESCRIPTION(
/* description */ ('Alibre Inc.'),
/* implementation_level */ '2;1');

FILE_NAME(
/* name */ 'export-4D41FBC2-16C2-4A5B-AD69-7096575CB934',
/* time_stamp */ '2023-02-09T13:52:53+01:00',
/* author */ (''),
/* organization */ (''),
/* preprocessor_version */ 'ST-DEVELOPER v17',
/* originating_system */ 'Alibre',
/* authorisation */ '');

FILE_SCHEMA (('AUTOMOTIVE_DESIGN'));
ENDSEC;

DATA;
#10=STYLED_ITEM('NAME_0',(#18),#506);
#11=MECHANICAL_DESIGN_GEOMETRIC_PRESENTATION_REPRESENTATION('NAME_0',(#10),
#33);
#12=COLOUR_RGB('',0.686274509803922,0.686274509803922,0.686274509803922);
#13=FILL_AREA_STYLE_COLOUR('NAME_0',#12);
#14=FILL_AREA_STYLE('NAME_0',(#13));
#15=SURFACE_STYLE_FILL_AREA(#14);
#16=SURFACE_SIDE_STYLE('NAME_0',(#15));
#17=SURFACE_STYLE_USAGE(.POSITIVE.,#16);
#18=PRESENTATION_STYLE_ASSIGNMENT((#17));
#19=PRODUCT_DEFINITION_CONTEXT('part definition',#26,'design');
#20=SHAPE_DEFINITION_REPRESENTATION(#21,#507);
#21=PRODUCT_DEFINITION_SHAPE('PRODUCT_VERSION_ID',
'PRODUCT_VERSION_DESCR',#22);
#22=PRODUCT_DEFINITION('PRODUCT_VERSION_ID','PRODUCT_VERSION_DESCR',#23,
#19);
#23=PRODUCT_DEFINITION_FORMATION_WITH_SPECIFIED_SOURCE(
'PRODUCT_VERSION_ID','PRODUCT_VERSION_DESCR',#28,.MADE.);
#24=PRODUCT_RELATED_PRODUCT_CATEGORY('part','part',(#28));
#25=APPLICATION_PROTOCOL_DEFINITION('Draft International Standard',
'automotive_design',1994,#26);
#26=APPLICATION_CONTEXT('automotive_Design');
#27=PRODUCT_CONTEXT('3D Mechanical Parts',#26,'mechanical');
#28=PRODUCT('Ring bolt DIN 580 M8 16010.080.001(High)',
'6255 M8 X 13 Lifting Eye Bolt DIN-580 Steel C15E Galvanized','',(#27));
#29=(
LENGTH_UNIT()
NAMED_UNIT(*)
SI_UNIT(.MILLI.,.METRE.)
);
#30=(
NAMED_UNIT(*)
PLANE_ANGLE_UNIT()
SI_UNIT($,.RADIAN.)
);
#31=(
NAMED_UNIT(*)
SI_UNIT($,.STERADIAN.)
SOLID_ANGLE_UNIT()
);
#32=UNCERTAINTY_MEASURE_WITH_UNIT(LENGTH_MEASURE(1.E-6),#29,
'DISTANCE_ACCURACY_VALUE',
'Maximum model space distance between geometric entities at asserted c
onnectivities');
#33=(
GEOMETRIC_REPRESENTATION_CONTEXT(3)
GLOBAL_UNCERTAINTY_ASSIGNED_CONTEXT((#32))
GLOBAL_UNIT_ASSIGNED_CONTEXT((#31,#30,#29))
REPRESENTATION_CONTEXT('ID1','3D')
);
#34=PLANE('',#282);
#35=PLANE('',#300);
#36=CONICAL_SURFACE('',#281,3.733,1.0471975511966);
#37=CONICAL_SURFACE('',#284,4.,0.785398163397448);
#38=CONICAL_SURFACE('',#285,6.23300000000001,1.0471975511966);
#39=CONICAL_SURFACE('',#290,0.812729876468105,1.36746546893756);
#40=CONICAL_SURFACE('',#296,0.812729876468105,1.36746546893756);
#41=CONICAL_SURFACE('',#298,9.70025250384631,0.0499164166070369);
#42=CONICAL_SURFACE('',#302,0.812729876468105,1.36746546893756);
#43=TOROIDAL_SURFACE('',#278,4.233,1.);
#44=TOROIDAL_SURFACE('',#288,4.233,1.);
#45=TOROIDAL_SURFACE('',#292,14.,4.);
#46=B_SPLINE_CURVE_WITH_KNOTS('',3,(#374,#375,#376,#377,#378,#379,#380,
#381,#382,#383,#384),.UNSPECIFIED.,.T.,.U.,(4,1,1,1,1,1,1,1,4),(0.,0.000784631328659012,
0.00156926265731802,0.00235389398597704,0.00313852531463605,0.00392315664329506,
0.00470778797195407,0.00549241930061308,0.0062770506292721),
 .UNSPECIFIED.);
#47=B_SPLINE_CURVE_WITH_KNOTS('',3,(#390,#391,#392,#393,#394,#395,#396,
#397,#398,#399,#400),.UNSPECIFIED.,.T.,.U.,(4,1,1,1,1,1,1,1,4),(0.,0.000784631328659012,
0.00156926265731802,0.00235389398597704,0.00313852531463605,0.00392315664329506,
0.00470778797195407,0.00549241930061308,0.0062770506292721),
 .UNSPECIFIED.);
#48=B_SPLINE_CURVE_WITH_KNOTS('',3,(#432,#433,#434,#435,#436,#437,#438,
#439,#440,#441,#442,#443,#444,#445,#446,#447,#448),.UNSPECIFIED.,.F.,.U.,
(4,1,1,1,1,1,1,1,1,1,1,1,1,1,4),(1.16483993645542E-6,0.00237905305352968,
0.0047569412671229,0.00594588537391951,0.00713482948071613,0.00832377358751274,
0.00891824564091104,0.00951271769430935,0.0101071897477077,0.010701661801106,
0.0118906059079026,0.0130795500146992,0.0142684941214958,0.016646382335089,
0.0190242705486822),.UNSPECIFIED.);
#49=B_SPLINE_CURVE_WITH_KNOTS('',3,(#454,#455,#456,#457,#458,#459,#460),
 .UNSPECIFIED.,.F.,.U.,(4,1,1,1,4),(2.03942182218079E-7,0.00272638037045288,
0.00545255679872353,0.00817873322699419,0.0109049096552648),
 .UNSPECIFIED.);
#50=B_SPLINE_CURVE_WITH_KNOTS('',3,(#462,#463,#464,#465,#466,#467,#468,
#469,#470,#471,#472,#473,#474,#475,#476,#477,#478),.UNSPECIFIED.,.F.,.U.,
(4,1,1,1,1,1,1,1,1,1,1,1,1,1,4),(1.16483993955208E-6,0.00237905305353239,
0.00475694126712522,0.00594588537392164,0.00713482948071806,0.00832377358751448,
0.00891824564091269,0.00951271769431089,0.0101071897477091,0.0107016618011073,
0.0118906059079037,0.0130795500147001,0.0142684941214966,0.0166463823350894,
0.0190242705486822),.UNSPECIFIED.);
#51=B_SPLINE_CURVE_WITH_KNOTS('',3,(#481,#482,#483,#484,#485,#486,#487),
 .UNSPECIFIED.,.F.,.U.,(4,1,1,1,4),(2.03942182245813E-7,0.00272638037045346,
0.00545255679872467,0.00817873322699588,0.0109049096552671),
 .UNSPECIFIED.);
#52=CIRCLE('',#273,4.);
#53=CIRCLE('',#274,4.);
#54=CIRCLE('',#276,3.233);
#55=CIRCLE('',#277,3.233);
#56=CIRCLE('',#279,1.);
#57=CIRCLE('',#280,3.733);
#58=CIRCLE('',#283,3.233);
#59=CIRCLE('',#286,6.23300000000001);
#60=CIRCLE('',#287,4.73300000000001);
#61=CIRCLE('',#289,1.);
#62=CIRCLE('',#291,9.70025250384631);
#63=CIRCLE('',#293,18.);
#64=CIRCLE('',#294,4.);
#65=CIRCLE('',#295,18.);
#66=CIRCLE('',#297,9.70025250384631);
#67=CIRCLE('',#299,10.);
#68=VERTEX_POINT('',#371);
#69=VERTEX_POINT('',#372);
#70=VERTEX_POINT('',#385);
#71=VERTEX_POINT('',#387);
#72=VERTEX_POINT('',#389);
#73=VERTEX_POINT('',#401);
#74=VERTEX_POINT('',#404);
#75=VERTEX_POINT('',#405);
#76=VERTEX_POINT('',#410);
#77=VERTEX_POINT('',#416);
#78=VERTEX_POINT('',#417);
#79=VERTEX_POINT('',#422);
#80=VERTEX_POINT('',#423);
#81=VERTEX_POINT('',#430);
#82=VERTEX_POINT('',#431);
#83=VERTEX_POINT('',#451);
#84=VERTEX_POINT('',#452);
#85=VERTEX_POINT('',#461);
#86=VERTEX_POINT('',#479);
#87=VERTEX_POINT('',#480);
#88=VERTEX_POINT('',#488);
#89=VERTEX_POINT('',#492);
#90=VERTEX_POINT('',#496);
#91=VECTOR('',#305,1.);
#92=VECTOR('',#308,1.);
#93=VECTOR('',#313,1.);
#94=VECTOR('',#325,1.);
#95=VECTOR('',#331,1.);
#96=VECTOR('',#334,1.);
#97=VECTOR('',#355,1.);
#98=VECTOR('',#360,1.);
#99=VECTOR('',#366,1.);
#100=LINE('',#370,#91);
#101=LINE('',#386,#92);
#102=LINE('',#403,#93);
#103=LINE('',#413,#94);
#104=LINE('',#419,#95);
#105=LINE('',#421,#96);
#106=LINE('',#491,#97);
#107=LINE('',#495,#98);
#108=LINE('',#500,#99);
#109=EDGE_CURVE('',#68,#69,#100,.T.);
#110=EDGE_CURVE('',#69,#69,#52,.T.);
#111=EDGE_CURVE('',#70,#68,#46,.T.);
#112=EDGE_CURVE('',#71,#70,#101,.T.);
#113=EDGE_CURVE('',#72,#71,#53,.T.);
#114=EDGE_CURVE('',#71,#72,#53,.T.);
#115=EDGE_CURVE('',#68,#70,#46,.T.);
#116=EDGE_CURVE('',#73,#73,#47,.T.);
#117=EDGE_CURVE('',#74,#75,#102,.T.);
#118=EDGE_CURVE('',#75,#75,#54,.T.);
#119=EDGE_CURVE('',#74,#74,#55,.T.);
#120=EDGE_CURVE('',#74,#76,#56,.T.);
#121=EDGE_CURVE('',#76,#76,#57,.T.);
#122=EDGE_CURVE('',#69,#76,#103,.T.);
#123=EDGE_CURVE('',#77,#78,#58,.T.);
#124=EDGE_CURVE('',#78,#77,#58,.T.);
#125=EDGE_CURVE('',#72,#78,#104,.T.);
#126=EDGE_CURVE('',#79,#80,#105,.T.);
#127=EDGE_CURVE('',#79,#79,#59,.T.);
#128=EDGE_CURVE('',#80,#80,#60,.T.);
#129=EDGE_CURVE('',#80,#75,#61,.T.);
#130=EDGE_CURVE('',#81,#82,#62,.T.);
#131=EDGE_CURVE('',#81,#82,#48,.T.);
#132=EDGE_CURVE('',#83,#84,#63,.T.);
#133=EDGE_CURVE('',#84,#84,#64,.T.);
#134=EDGE_CURVE('',#85,#83,#49,.T.);
#135=EDGE_CURVE('',#86,#85,#50,.T.);
#136=EDGE_CURVE('',#87,#86,#50,.T.);
#137=EDGE_CURVE('',#88,#87,#51,.T.);
#138=EDGE_CURVE('',#84,#88,#65,.T.);
#139=EDGE_CURVE('',#82,#88,#51,.T.);
#140=EDGE_CURVE('',#83,#81,#49,.T.);
#141=EDGE_CURVE('',#89,#86,#106,.T.);
#142=EDGE_CURVE('',#89,#85,#66,.T.);
#143=EDGE_CURVE('',#90,#89,#107,.T.);
#144=EDGE_CURVE('',#87,#89,#66,.T.);
#145=EDGE_CURVE('',#90,#90,#67,.T.);
#146=EDGE_CURVE('',#68,#73,#108,.T.);
#147=ORIENTED_EDGE('',*,*,#109,.T.);
#148=ORIENTED_EDGE('',*,*,#110,.T.);
#149=ORIENTED_EDGE('',*,*,#109,.F.);
#150=ORIENTED_EDGE('',*,*,#111,.F.);
#151=ORIENTED_EDGE('',*,*,#112,.F.);
#152=ORIENTED_EDGE('',*,*,#113,.F.);
#153=ORIENTED_EDGE('',*,*,#114,.F.);
#154=ORIENTED_EDGE('',*,*,#112,.T.);
#155=ORIENTED_EDGE('',*,*,#115,.F.);
#156=ORIENTED_EDGE('',*,*,#116,.F.);
#157=ORIENTED_EDGE('',*,*,#117,.T.);
#158=ORIENTED_EDGE('',*,*,#118,.T.);
#159=ORIENTED_EDGE('',*,*,#117,.F.);
#160=ORIENTED_EDGE('',*,*,#119,.F.);
#161=ORIENTED_EDGE('',*,*,#120,.F.);
#162=ORIENTED_EDGE('',*,*,#119,.T.);
#163=ORIENTED_EDGE('',*,*,#120,.T.);
#164=ORIENTED_EDGE('',*,*,#121,.F.);
#165=ORIENTED_EDGE('',*,*,#122,.T.);
#166=ORIENTED_EDGE('',*,*,#121,.T.);
#167=ORIENTED_EDGE('',*,*,#122,.F.);
#168=ORIENTED_EDGE('',*,*,#110,.F.);
#169=ORIENTED_EDGE('',*,*,#123,.T.);
#170=ORIENTED_EDGE('',*,*,#124,.T.);
#171=ORIENTED_EDGE('',*,*,#125,.T.);
#172=ORIENTED_EDGE('',*,*,#123,.F.);
#173=ORIENTED_EDGE('',*,*,#124,.F.);
#174=ORIENTED_EDGE('',*,*,#125,.F.);
#175=ORIENTED_EDGE('',*,*,#113,.T.);
#176=ORIENTED_EDGE('',*,*,#114,.T.);
#177=ORIENTED_EDGE('',*,*,#126,.F.);
#178=ORIENTED_EDGE('',*,*,#127,.T.);
#179=ORIENTED_EDGE('',*,*,#126,.T.);
#180=ORIENTED_EDGE('',*,*,#128,.F.);
#181=ORIENTED_EDGE('',*,*,#129,.F.);
#182=ORIENTED_EDGE('',*,*,#128,.T.);
#183=ORIENTED_EDGE('',*,*,#129,.T.);
#184=ORIENTED_EDGE('',*,*,#118,.F.);
#185=ORIENTED_EDGE('',*,*,#130,.F.);
#186=ORIENTED_EDGE('',*,*,#131,.T.);
#187=ORIENTED_EDGE('',*,*,#132,.T.);
#188=ORIENTED_EDGE('',*,*,#133,.T.);
#189=ORIENTED_EDGE('',*,*,#132,.F.);
#190=ORIENTED_EDGE('',*,*,#134,.F.);
#191=ORIENTED_EDGE('',*,*,#135,.F.);
#192=ORIENTED_EDGE('',*,*,#136,.F.);
#193=ORIENTED_EDGE('',*,*,#137,.F.);
#194=ORIENTED_EDGE('',*,*,#138,.F.);
#195=ORIENTED_EDGE('',*,*,#133,.F.);
#196=ORIENTED_EDGE('',*,*,#138,.T.);
#197=ORIENTED_EDGE('',*,*,#139,.F.);
#198=ORIENTED_EDGE('',*,*,#131,.F.);
#199=ORIENTED_EDGE('',*,*,#140,.F.);
#200=ORIENTED_EDGE('',*,*,#141,.T.);
#201=ORIENTED_EDGE('',*,*,#135,.T.);
#202=ORIENTED_EDGE('',*,*,#142,.F.);
#203=ORIENTED_EDGE('',*,*,#143,.T.);
#204=ORIENTED_EDGE('',*,*,#142,.T.);
#205=ORIENTED_EDGE('',*,*,#134,.T.);
#206=ORIENTED_EDGE('',*,*,#140,.T.);
#207=ORIENTED_EDGE('',*,*,#130,.T.);
#208=ORIENTED_EDGE('',*,*,#139,.T.);
#209=ORIENTED_EDGE('',*,*,#137,.T.);
#210=ORIENTED_EDGE('',*,*,#144,.T.);
#211=ORIENTED_EDGE('',*,*,#143,.F.);
#212=ORIENTED_EDGE('',*,*,#145,.F.);
#213=ORIENTED_EDGE('',*,*,#127,.F.);
#214=ORIENTED_EDGE('',*,*,#145,.T.);
#215=ORIENTED_EDGE('',*,*,#146,.F.);
#216=ORIENTED_EDGE('',*,*,#115,.T.);
#217=ORIENTED_EDGE('',*,*,#111,.T.);
#218=ORIENTED_EDGE('',*,*,#146,.T.);
#219=ORIENTED_EDGE('',*,*,#116,.T.);
#220=ORIENTED_EDGE('',*,*,#141,.F.);
#221=ORIENTED_EDGE('',*,*,#144,.F.);
#222=ORIENTED_EDGE('',*,*,#136,.T.);
#223=EDGE_LOOP('',(#147,#148,#149,#150,#151,#152,#153,#154,#155));
#224=EDGE_LOOP('',(#156));
#225=EDGE_LOOP('',(#157,#158,#159,#160));
#226=EDGE_LOOP('',(#161,#162,#163,#164));
#227=EDGE_LOOP('',(#165,#166,#167,#168));
#228=EDGE_LOOP('',(#169,#170));
#229=EDGE_LOOP('',(#171,#172,#173,#174,#175,#176));
#230=EDGE_LOOP('',(#177,#178,#179,#180));
#231=EDGE_LOOP('',(#181,#182,#183,#184));
#232=EDGE_LOOP('',(#185,#186));
#233=EDGE_LOOP('',(#187,#188,#189,#190,#191,#192,#193,#194,#195,#196,#197,
#198,#199));
#234=EDGE_LOOP('',(#200,#201,#202));
#235=EDGE_LOOP('',(#203,#204,#205,#206,#207,#208,#209,#210,#211,#212));
#236=EDGE_LOOP('',(#213));
#237=EDGE_LOOP('',(#214));
#238=EDGE_LOOP('',(#215,#216,#217,#218,#219));
#239=EDGE_LOOP('',(#220,#221,#222));
#240=FACE_BOUND('',#223,.T.);
#241=FACE_BOUND('',#224,.T.);
#242=FACE_BOUND('',#225,.T.);
#243=FACE_BOUND('',#226,.T.);
#244=FACE_BOUND('',#227,.T.);
#245=FACE_BOUND('',#228,.T.);
#246=FACE_BOUND('',#229,.T.);
#247=FACE_BOUND('',#230,.T.);
#248=FACE_BOUND('',#231,.T.);
#249=FACE_BOUND('',#232,.T.);
#250=FACE_BOUND('',#233,.T.);
#251=FACE_BOUND('',#234,.T.);
#252=FACE_BOUND('',#235,.T.);
#253=FACE_BOUND('',#236,.T.);
#254=FACE_BOUND('',#237,.T.);
#255=FACE_BOUND('',#238,.T.);
#256=FACE_BOUND('',#239,.T.);
#257=ADVANCED_FACE('',(#240,#241),#502,.T.);
#258=ADVANCED_FACE('',(#242),#503,.T.);
#259=ADVANCED_FACE('',(#243),#43,.F.);
#260=ADVANCED_FACE('',(#244),#36,.T.);
#261=ADVANCED_FACE('',(#245),#34,.F.);
#262=ADVANCED_FACE('',(#246),#37,.T.);
#263=ADVANCED_FACE('',(#247),#38,.F.);
#264=ADVANCED_FACE('',(#248),#44,.F.);
#265=ADVANCED_FACE('',(#249),#39,.T.);
#266=ADVANCED_FACE('',(#250),#45,.T.);
#267=ADVANCED_FACE('',(#251),#40,.T.);
#268=ADVANCED_FACE('',(#252),#41,.T.);
#269=ADVANCED_FACE('',(#253,#254),#35,.F.);
#270=ADVANCED_FACE('',(#255),#504,.F.);
#271=ADVANCED_FACE('',(#256),#42,.T.);
#272=AXIS2_PLACEMENT_3D('',#369,#303,#304);
#273=AXIS2_PLACEMENT_3D('',#373,#306,#307);
#274=AXIS2_PLACEMENT_3D('',#388,#309,#310);
#275=AXIS2_PLACEMENT_3D('',#402,#311,#312);
#276=AXIS2_PLACEMENT_3D('',#406,#314,#315);
#277=AXIS2_PLACEMENT_3D('',#407,#316,#317);
#278=AXIS2_PLACEMENT_3D('',#408,#318,$);
#279=AXIS2_PLACEMENT_3D('',#409,#319,#320);
#280=AXIS2_PLACEMENT_3D('',#411,#321,#322);
#281=AXIS2_PLACEMENT_3D('',#412,#323,#324);
#282=AXIS2_PLACEMENT_3D('',#414,#326,$);
#283=AXIS2_PLACEMENT_3D('',#415,#327,#328);
#284=AXIS2_PLACEMENT_3D('',#418,#329,#330);
#285=AXIS2_PLACEMENT_3D('',#420,#332,#333);
#286=AXIS2_PLACEMENT_3D('',#424,#335,#336);
#287=AXIS2_PLACEMENT_3D('',#425,#337,#338);
#288=AXIS2_PLACEMENT_3D('',#426,#339,$);
#289=AXIS2_PLACEMENT_3D('',#427,#340,#341);
#290=AXIS2_PLACEMENT_3D('',#428,#342,#343);
#291=AXIS2_PLACEMENT_3D('',#429,#344,#345);
#292=AXIS2_PLACEMENT_3D('',#449,#346,$);
#293=AXIS2_PLACEMENT_3D('',#450,#347,#348);
#294=AXIS2_PLACEMENT_3D('',#453,#349,#350);
#295=AXIS2_PLACEMENT_3D('',#489,#351,#352);
#296=AXIS2_PLACEMENT_3D('',#490,#353,#354);
#297=AXIS2_PLACEMENT_3D('',#493,#356,#357);
#298=AXIS2_PLACEMENT_3D('',#494,#358,#359);
#299=AXIS2_PLACEMENT_3D('',#497,#361,#362);
#300=AXIS2_PLACEMENT_3D('',#498,#363,$);
#301=AXIS2_PLACEMENT_3D('',#499,#364,#365);
#302=AXIS2_PLACEMENT_3D('',#501,#367,#368);
#303=DIRECTION('',(1.,0.,0.));
#304=DIRECTION('',(0.,0.,-4.));
#305=DIRECTION('',(-1.,0.,0.));
#306=DIRECTION('',(1.,0.,0.));
#307=DIRECTION('',(0.,0.,-4.));
#308=DIRECTION('',(-1.,0.,0.));
#309=DIRECTION('',(1.,0.,0.));
#310=DIRECTION('',(0.,0.,-4.));
#311=DIRECTION('',(1.,0.,0.));
#312=DIRECTION('',(0.,0.,-3.233));
#313=DIRECTION('',(-1.,0.,0.));
#314=DIRECTION('',(1.,0.,0.));
#315=DIRECTION('',(0.,0.,-3.233));
#316=DIRECTION('',(1.,0.,0.));
#317=DIRECTION('',(0.,0.,-3.233));
#318=DIRECTION('',(1.,0.,0.));
#319=DIRECTION('',(0.,1.,0.));
#320=DIRECTION('',(0.,0.,-1.));
#321=DIRECTION('',(1.,0.,0.));
#322=DIRECTION('',(0.,0.,-3.733));
#323=DIRECTION('',(1.,0.,0.));
#324=DIRECTION('',(0.,0.,-3.733));
#325=DIRECTION('',(-0.499999999999998,0.,0.86602540378444));
#326=DIRECTION('',(-1.,0.,0.));
#327=DIRECTION('',(1.,0.,0.));
#328=DIRECTION('',(0.,0.,-3.233));
#329=DIRECTION('',(-1.,0.,0.));
#330=DIRECTION('',(0.,0.,4.));
#331=DIRECTION('',(0.707106781186548,0.,-0.707106781186547));
#332=DIRECTION('',(1.,0.,0.));
#333=DIRECTION('',(0.,0.,-6.23300000000001));
#334=DIRECTION('',(-0.499999999999998,0.,0.86602540378444));
#335=DIRECTION('',(1.,0.,0.));
#336=DIRECTION('',(0.,0.,-6.23300000000001));
#337=DIRECTION('',(1.,0.,0.));
#338=DIRECTION('',(0.,0.,-4.73300000000001));
#339=DIRECTION('',(1.,0.,0.));
#340=DIRECTION('',(0.,1.,0.));
#341=DIRECTION('',(0.,0.,-1.));
#342=DIRECTION('',(1.,0.,0.));
#343=DIRECTION('',(0.,0.,-0.812729876468105));
#344=DIRECTION('',(1.,0.,0.));
#345=DIRECTION('',(0.,0.,-9.70025250384631));
#346=DIRECTION('',(0.,0.,-1.));
#347=DIRECTION('',(0.,0.,1.));
#348=DIRECTION('',(-18.,0.,0.));
#349=DIRECTION('',(0.,1.,0.));
#350=DIRECTION('',(-4.,0.,0.));
#351=DIRECTION('',(0.,0.,1.));
#352=DIRECTION('',(-18.,0.,0.));
#353=DIRECTION('',(1.,0.,0.));
#354=DIRECTION('',(0.,0.,-0.812729876468105));
#355=DIRECTION('',(-0.201932685141498,0.,0.979399403038181));
#356=DIRECTION('',(1.,0.,0.));
#357=DIRECTION('',(0.,0.,-9.70025250384631));
#358=DIRECTION('',(1.,0.,0.));
#359=DIRECTION('',(0.,0.,-9.70025250384631));
#360=DIRECTION('',(-0.99875443433478,0.,0.0498956901607079));
#361=DIRECTION('',(1.,0.,0.));
#362=DIRECTION('',(0.,0.,-10.));
#363=DIRECTION('',(-1.,0.,0.));
#364=DIRECTION('',(0.,0.,-1.));
#365=DIRECTION('',(-1.,0.,0.));
#366=DIRECTION('',(0.,0.,1.));
#367=DIRECTION('',(1.,0.,0.));
#368=DIRECTION('',(0.,0.,-0.812729876468105));
#369=CARTESIAN_POINT('',(13.,0.,0.));
#370=CARTESIAN_POINT('',(1.733,0.,-4.));
#371=CARTESIAN_POINT('',(8.,1.52655665885959E-15,-4.));
#372=CARTESIAN_POINT('',(2.5,-2.26621555905919E-15,-4.));
#373=CARTESIAN_POINT('',(2.5,0.,0.));
#374=CARTESIAN_POINT('',(8.,-1.66533453693773E-16,-4.));
#375=CARTESIAN_POINT('',(7.99998199607339,0.261361438292905,-4.00001434537865));
#376=CARTESIAN_POINT('',(8.21696546037946,0.783797986102118,-3.93746184205018));
#377=CARTESIAN_POINT('',(8.99884904617703,1.10814725004974,-3.84073447260854));
#378=CARTESIAN_POINT('',(9.7838515325516,0.783611818696835,-3.93750065330834));
#379=CARTESIAN_POINT('',(10.1079560657565,0.000475563797038657,-4.03120940937604));
#380=CARTESIAN_POINT('',(9.78432366735956,-0.782975422234505,-3.93766157492181));
#381=CARTESIAN_POINT('',(9.00043904463964,-1.10816327637151,-3.84071573662366));
#382=CARTESIAN_POINT('',(8.21707348393912,-0.784370643655313,-3.93737576977826));
#383=CARTESIAN_POINT('',(8.00001800392661,-0.261361438292904,-3.99998565462135));
#384=CARTESIAN_POINT('',(8.,3.21964677141295E-15,-4.));
#385=CARTESIAN_POINT('',(9.99999992700073,0.000211554304206956,-3.99999998881119));
#386=CARTESIAN_POINT('',(1.733,0.,-4.));
#387=CARTESIAN_POINT('',(12.233,-2.44929359829471E-16,-4.));
#388=CARTESIAN_POINT('',(12.233,0.,0.));
#389=CARTESIAN_POINT('',(12.233,2.44929359829471E-16,4.));
#390=CARTESIAN_POINT('',(8.,1.66533453693773E-16,4.));
#391=CARTESIAN_POINT('',(7.99998199607339,-0.261361438292905,4.00001434537865));
#392=CARTESIAN_POINT('',(8.21696546037946,-0.783797986102118,3.93746184205018));
#393=CARTESIAN_POINT('',(8.99884904617703,-1.10814725004974,3.84073447260854));
#394=CARTESIAN_POINT('',(9.7838515325516,-0.783611818696835,3.93750065330834));
#395=CARTESIAN_POINT('',(10.1079560657565,-0.000475563797038657,4.03120940937604));
#396=CARTESIAN_POINT('',(9.78432366735956,0.782975422234505,3.93766157492181));
#397=CARTESIAN_POINT('',(9.00043904463964,1.10816327637151,3.84071573662366));
#398=CARTESIAN_POINT('',(8.21707348393912,0.784370643655313,3.93737576977826));
#399=CARTESIAN_POINT('',(8.00001800392661,0.261361438292904,3.99998565462135));
#400=CARTESIAN_POINT('',(8.,-3.21964677141295E-15,4.));
#401=CARTESIAN_POINT('',(8.,-1.52655665885959E-15,4.));
#402=CARTESIAN_POINT('',(2.5,0.,0.));
#403=CARTESIAN_POINT('',(-1.02017792565807,0.,-3.233));
#404=CARTESIAN_POINT('',(1.47982207434193,-3.95928310164339E-16,-3.233));
#405=CARTESIAN_POINT('',(-1.45800109411238E-16,-3.95928310164339E-16,-3.233));
#406=CARTESIAN_POINT('',(0.,0.,0.));
#407=CARTESIAN_POINT('',(1.47982207434193,0.,0.));
#408=CARTESIAN_POINT('',(1.47982207434193,0.,0.));
#409=CARTESIAN_POINT('',(1.47982207434193,0.,-4.233));
#410=CARTESIAN_POINT('',(2.34584747812637,-2.11494567049199E-15,-3.733));
#411=CARTESIAN_POINT('',(2.34584747812637,0.,0.));
#412=CARTESIAN_POINT('',(2.34584747812637,0.,0.));
#413=CARTESIAN_POINT('',(2.48458474781264,0.,-3.9733));
#414=CARTESIAN_POINT('',(13.,3.233,0.));
#415=CARTESIAN_POINT('',(13.,0.,0.));
#416=CARTESIAN_POINT('',(13.,-1.9796415508217E-16,-3.233));
#417=CARTESIAN_POINT('',(13.,2.22044604925031E-16,3.233));
#418=CARTESIAN_POINT('',(12.233,0.,0.));
#419=CARTESIAN_POINT('',(13.0767,0.,3.1563));
#420=CARTESIAN_POINT('',(0.,0.,0.));
#421=CARTESIAN_POINT('',(-0.952627944162887,0.,-4.58299999999999));
#422=CARTESIAN_POINT('',(0.,-7.63322349908546E-16,-6.23300000000001));
#423=CARTESIAN_POINT('',(-0.86602540378444,-5.79625330036444E-16,-4.73300000000001));
#424=CARTESIAN_POINT('',(0.,0.,0.));
#425=CARTESIAN_POINT('',(-0.866025403784443,0.,0.));
#426=CARTESIAN_POINT('',(-6.83047368665868E-15,0.,0.));
#427=CARTESIAN_POINT('',(-6.83047368665868E-15,0.,-4.233));
#428=CARTESIAN_POINT('',(-7.83243046997484,0.,0.));
#429=CARTESIAN_POINT('',(-6.,0.,0.));
#430=CARTESIAN_POINT('',(-6.00000000000001,8.88613804308188,3.88991636383991));
#431=CARTESIAN_POINT('',(-6.,-8.88613804308183,3.88991636384008));
#432=CARTESIAN_POINT('',(-6.,8.88613804308189,3.8899163638399));
#433=CARTESIAN_POINT('',(-6.13609502301808,8.10538536574789,4.02743856190022));
#434=CARTESIAN_POINT('',(-6.42045923210254,6.53730864168114,4.03128394566897));
#435=CARTESIAN_POINT('',(-6.79785638725708,4.62344145612559,3.56941783574385));
#436=CARTESIAN_POINT('',(-7.09838110893173,3.17601680536114,3.01473598513413));
#437=CARTESIAN_POINT('',(-7.32417111294165,2.11352075382824,2.51878869331101));
#438=CARTESIAN_POINT('',(-7.50701296909531,1.24666728420526,2.05695371477793));
#439=CARTESIAN_POINT('',(-7.63664554111139,0.553627244610983,1.69386098341278));
#440=CARTESIAN_POINT('',(-7.69473753093373,-0.037129986690744,1.5194159353012));
#441=CARTESIAN_POINT('',(-7.62590467849017,-0.61161361278701,1.72518171498744));
#442=CARTESIAN_POINT('',(-7.49720216441617,-1.29624496393618,2.08234051368312));
#443=CARTESIAN_POINT('',(-7.31499774182368,-2.15571733339104,2.54025350497638));
#444=CARTESIAN_POINT('',(-7.09206451279175,-3.20629600403915,3.0272637765985));
#445=CARTESIAN_POINT('',(-6.79279253264973,-4.64850527458974,3.57679828817401));
#446=CARTESIAN_POINT('',(-6.41823785033893,-6.54944708186203,4.03195322251995));
#447=CARTESIAN_POINT('',(-6.13494132215055,-8.11200394019076,4.02627276262526));
#448=CARTESIAN_POINT('',(-5.99999999999998,-8.88613804308193,3.88991636384023));
#449=CARTESIAN_POINT('',(-18.,0.,0.));
#450=CARTESIAN_POINT('',(-18.,0.,0.));
#451=CARTESIAN_POINT('',(-2.9363883095592,9.85330414979038,-0.000164872855330035));
#452=CARTESIAN_POINT('',(-36.,2.20436423846524E-15,-4.89858719658941E-16));
#453=CARTESIAN_POINT('',(-32.,0.,0.));
#454=CARTESIAN_POINT('',(-6.,8.88613804308188,-3.8899163638399));
#455=CARTESIAN_POINT('',(-5.10884886683083,9.01808244895121,-3.6995214105601));
#456=CARTESIAN_POINT('',(-3.51249792994825,9.52621405228038,-2.74573164638911));
#457=CARTESIAN_POINT('',(-2.64889854205875,10.0166136419984,0.000335041266926024));
#458=CARTESIAN_POINT('',(-3.51023783608987,9.52715629925273,2.74241300705745));
#459=CARTESIAN_POINT('',(-5.10839863402635,9.01814911070775,3.69942521806192));
#460=CARTESIAN_POINT('',(-5.99999999999999,8.88613804308188,3.88991636383992));
#461=CARTESIAN_POINT('',(-6.00000000000001,8.88613804308148,-3.88991636384089));
#462=CARTESIAN_POINT('',(-6.00000000000053,-8.88613804307883,-3.88991636384044));
#463=CARTESIAN_POINT('',(-6.1360950230186,-8.10538536574496,-4.02743856190037));
#464=CARTESIAN_POINT('',(-6.42045923210305,-6.53730864167843,-4.03128394566859));
#465=CARTESIAN_POINT('',(-6.79785638725753,-4.62344145612336,-3.56941783574315));
#466=CARTESIAN_POINT('',(-7.09838110893213,-3.17601680535922,-3.01473598513331));
#467=CARTESIAN_POINT('',(-7.32417111294202,-2.11352075382652,-2.51878869331014));
#468=CARTESIAN_POINT('',(-7.50701296909562,-1.24666728420374,-2.05695371477713));
#469=CARTESIAN_POINT('',(-7.63664554111165,-0.553627244609475,-1.69386098341201));
#470=CARTESIAN_POINT('',(-7.6947375309337,0.037129986692353,-1.51941593530129));
#471=CARTESIAN_POINT('',(-7.62590467848994,0.611613612788281,-1.72518171498812));
#472=CARTESIAN_POINT('',(-7.49720216441594,1.29624496393732,-2.08234051368371));
#473=CARTESIAN_POINT('',(-7.31499774182346,2.15571733339204,-2.54025350497689));
#474=CARTESIAN_POINT('',(-7.09206451279157,3.20629600404002,-3.02726377659886));
#475=CARTESIAN_POINT('',(-6.7927925326496,4.64850527459039,-3.5767982881742));
#476=CARTESIAN_POINT('',(-6.41823785033887,6.54944708186242,-4.03195322251997));
#477=CARTESIAN_POINT('',(-6.13494132215053,8.11200394019088,-4.02627276262524));
#478=CARTESIAN_POINT('',(-5.99999999999998,8.88613804308193,-3.88991636384023));
#479=CARTESIAN_POINT('',(-7.67368217430188,1.91762988881897E-8,-1.5825090164195));
#480=CARTESIAN_POINT('',(-6.0000000000011,-8.88613804308015,-3.88991636384373));
#481=CARTESIAN_POINT('',(-5.99999999999997,-8.88613804308189,3.8899163638399));
#482=CARTESIAN_POINT('',(-5.10884886683062,-9.01808244895124,3.69952141056005));
#483=CARTESIAN_POINT('',(-3.51249792994778,-9.52621405228058,2.74573164638871));
#484=CARTESIAN_POINT('',(-2.64889854205863,-10.0166136419985,-0.000335041268161814));
#485=CARTESIAN_POINT('',(-3.51023783609083,-9.52715629925223,-2.74241300705896));
#486=CARTESIAN_POINT('',(-5.10839863402824,-9.01814911070729,-3.69942521806278));
#487=CARTESIAN_POINT('',(-6.00000000000219,-8.88613804308155,-3.88991636384039));
#488=CARTESIAN_POINT('',(-2.9363883095592,-9.85330414979039,0.000164872854758746));
#489=CARTESIAN_POINT('',(-18.,0.,0.));
#490=CARTESIAN_POINT('',(-7.83243046997484,0.,0.));
#491=CARTESIAN_POINT('',(-6.01275039267777,0.,-9.63841146524313));
#492=CARTESIAN_POINT('',(-6.00000000000002,-1.18793831797565E-15,-9.70025250384631));
#493=CARTESIAN_POINT('',(-6.,0.,0.));
#494=CARTESIAN_POINT('',(-6.,0.,0.));
#495=CARTESIAN_POINT('',(-0.600000000002409,0.,-9.97002525038451));
#496=CARTESIAN_POINT('',(-1.4210854715202E-14,-1.22464679914735E-15,-10.));
#497=CARTESIAN_POINT('',(0.,0.,0.));
#498=CARTESIAN_POINT('',(0.,10.,0.));
#499=CARTESIAN_POINT('',(9.,0.,8.));
#500=CARTESIAN_POINT('',(8.,0.,-8.));
#501=CARTESIAN_POINT('',(-7.83243046997484,0.,0.));
#502=CYLINDRICAL_SURFACE('',#272,4.);
#503=CYLINDRICAL_SURFACE('',#275,3.233);
#504=CYLINDRICAL_SURFACE('',#301,1.);
#505=CLOSED_SHELL('',(#257,#258,#259,#260,#261,#262,#263,#264,#265,#266,
#267,#268,#269,#270,#271));
#506=MANIFOLD_SOLID_BREP('',#505);
#507=ADVANCED_BREP_SHAPE_REPRESENTATION('',(#506),#33);
ENDSEC;
END-ISO-10303-21;
