ISO-10303-21;
HEADER;
/* Generated by software containing ST-Developer
 * from STEP Tools, Inc. (www.steptools.com) 
 */

FILE_DESCRIPTION(
/* description */ ('Alibre Inc.'),
/* implementation_level */ '2;1');

FILE_NAME(
/* name */ 'export-B44E7E0B-0944-4E71-B3A8-C0D6EC119502',
/* time_stamp */ '2023-03-27T13:31:23+02:00',
/* author */ (''),
/* organization */ (''),
/* preprocessor_version */ 'ST-DEVELOPER v17',
/* originating_system */ 'Alibre',
/* authorisation */ '');

FILE_SCHEMA (('AUTOMOTIVE_DESIGN'));
ENDSEC;

DATA;
#10=STYLED_ITEM('NAME_0',(#18),#483);
#11=MECHANICAL_DESIGN_GEOMETRIC_PRESENTATION_REPRESENTATION('NAME_0',(#10),
#33);
#12=COLOUR_RGB('',0.247058823529412,0.247058823529412,0.247058823529412);
#13=FILL_AREA_STYLE_COLOUR('NAME_0',#12);
#14=FILL_AREA_STYLE('NAME_0',(#13));
#15=SURFACE_STYLE_FILL_AREA(#14);
#16=SURFACE_SIDE_STYLE('NAME_0',(#15));
#17=SURFACE_STYLE_USAGE(.POSITIVE.,#16);
#18=PRESENTATION_STYLE_ASSIGNMENT((#17));
#19=PRODUCT_DEFINITION_CONTEXT('part definition',#26,'design');
#20=SHAPE_DEFINITION_REPRESENTATION(#21,#484);
#21=PRODUCT_DEFINITION_SHAPE('PRODUCT_VERSION_ID',
'PRODUCT_VERSION_DESCR',#22);
#22=PRODUCT_DEFINITION('PRODUCT_VERSION_ID','PRODUCT_VERSION_DESCR',#23,
#19);
#23=PRODUCT_DEFINITION_FORMATION_WITH_SPECIFIED_SOURCE(
'PRODUCT_VERSION_ID','PRODUCT_VERSION_DESCR',#28,.MADE.);
#24=PRODUCT_RELATED_PRODUCT_CATEGORY('part','part',(#28));
#25=APPLICATION_PROTOCOL_DEFINITION('Draft International Standard',
'automotive_design',1994,#26);
#26=APPLICATION_CONTEXT('automotive_Design');
#27=PRODUCT_CONTEXT('3D Mechanical Parts',#26,'mechanical');
#28=PRODUCT('Rhombus T-Nut GN 508.1-8-M6',
'6266 M6 T-nut Rhombus DIN508.1 for T-slot=8mm wide','',(#27));
#29=(
LENGTH_UNIT()
NAMED_UNIT(*)
SI_UNIT(.MILLI.,.METRE.)
);
#30=(
NAMED_UNIT(*)
PLANE_ANGLE_UNIT()
SI_UNIT($,.RADIAN.)
);
#31=(
NAMED_UNIT(*)
SI_UNIT($,.STERADIAN.)
SOLID_ANGLE_UNIT()
);
#32=UNCERTAINTY_MEASURE_WITH_UNIT(LENGTH_MEASURE(1.E-6),#29,
'DISTANCE_ACCURACY_VALUE',
'Maximum model space distance between geometric entities at asserted c
onnectivities');
#33=(
GEOMETRIC_REPRESENTATION_CONTEXT(3)
GLOBAL_UNCERTAINTY_ASSIGNED_CONTEXT((#32))
GLOBAL_UNIT_ASSIGNED_CONTEXT((#31,#30,#29))
REPRESENTATION_CONTEXT('ID1','3D')
);
#34=CYLINDRICAL_SURFACE('',#325,2.4585);
#35=CONICAL_SURFACE('',#321,4.,0.78539816339745);
#36=CONICAL_SURFACE('',#323,2.4585,0.785398163397448);
#37=VECTOR('',#331,1.);
#38=VECTOR('',#332,1.);
#39=VECTOR('',#333,1.);
#40=VECTOR('',#334,1.);
#41=VECTOR('',#336,1.);
#42=VECTOR('',#337,1.);
#43=VECTOR('',#338,1.);
#44=VECTOR('',#340,1.);
#45=VECTOR('',#341,1.);
#46=VECTOR('',#342,1.);
#47=VECTOR('',#344,1.);
#48=VECTOR('',#345,1.);
#49=VECTOR('',#346,1.);
#50=VECTOR('',#348,1.);
#51=VECTOR('',#349,1.);
#52=VECTOR('',#350,1.);
#53=VECTOR('',#356,1.);
#54=VECTOR('',#357,1.);
#55=VECTOR('',#358,1.);
#56=VECTOR('',#360,1.);
#57=VECTOR('',#361,1.);
#58=VECTOR('',#362,1.);
#59=VECTOR('',#364,1.);
#60=VECTOR('',#365,1.);
#61=VECTOR('',#366,1.);
#62=VECTOR('',#368,1.);
#63=VECTOR('',#369,1.);
#64=VECTOR('',#370,1.);
#65=VECTOR('',#372,1.);
#66=VECTOR('',#373,1.);
#67=VECTOR('',#378,1.);
#68=VECTOR('',#383,1.);
#69=VECTOR('',#388,1.);
#70=LINE('',#394,#37);
#71=LINE('',#397,#38);
#72=LINE('',#399,#39);
#73=LINE('',#401,#40);
#74=LINE('',#403,#41);
#75=LINE('',#405,#42);
#76=LINE('',#407,#43);
#77=LINE('',#409,#44);
#78=LINE('',#411,#45);
#79=LINE('',#413,#46);
#80=LINE('',#415,#47);
#81=LINE('',#417,#48);
#82=LINE('',#419,#49);
#83=LINE('',#421,#50);
#84=LINE('',#423,#51);
#85=LINE('',#425,#52);
#86=LINE('',#431,#53);
#87=LINE('',#433,#54);
#88=LINE('',#435,#55);
#89=LINE('',#437,#56);
#90=LINE('',#439,#57);
#91=LINE('',#441,#58);
#92=LINE('',#443,#59);
#93=LINE('',#445,#60);
#94=LINE('',#447,#61);
#95=LINE('',#449,#62);
#96=LINE('',#451,#63);
#97=LINE('',#453,#64);
#98=LINE('',#455,#65);
#99=LINE('',#456,#66);
#100=LINE('',#460,#67);
#101=LINE('',#465,#68);
#102=LINE('',#469,#69);
#103=VERTEX_POINT('',#391);
#104=VERTEX_POINT('',#392);
#105=VERTEX_POINT('',#395);
#106=VERTEX_POINT('',#396);
#107=VERTEX_POINT('',#398);
#108=VERTEX_POINT('',#400);
#109=VERTEX_POINT('',#404);
#110=VERTEX_POINT('',#406);
#111=VERTEX_POINT('',#410);
#112=VERTEX_POINT('',#412);
#113=VERTEX_POINT('',#416);
#114=VERTEX_POINT('',#418);
#115=VERTEX_POINT('',#422);
#116=VERTEX_POINT('',#424);
#117=VERTEX_POINT('',#428);
#118=VERTEX_POINT('',#429);
#119=VERTEX_POINT('',#432);
#120=VERTEX_POINT('',#434);
#121=VERTEX_POINT('',#438);
#122=VERTEX_POINT('',#440);
#123=VERTEX_POINT('',#444);
#124=VERTEX_POINT('',#446);
#125=VERTEX_POINT('',#450);
#126=VERTEX_POINT('',#452);
#127=VERTEX_POINT('',#461);
#128=VERTEX_POINT('',#463);
#129=VERTEX_POINT('',#466);
#130=CIRCLE('',#306,3.);
#131=CIRCLE('',#307,3.);
#132=CIRCLE('',#313,3.);
#133=CIRCLE('',#314,3.);
#134=CIRCLE('',#322,2.4585);
#135=CIRCLE('',#324,2.4585);
#136=EDGE_CURVE('',#103,#104,#130,.T.);
#137=EDGE_CURVE('',#104,#103,#131,.T.);
#138=EDGE_CURVE('',#105,#106,#70,.T.);
#139=EDGE_CURVE('',#105,#107,#71,.T.);
#140=EDGE_CURVE('',#108,#107,#72,.T.);
#141=EDGE_CURVE('',#106,#108,#73,.T.);
#142=EDGE_CURVE('',#106,#109,#74,.T.);
#143=EDGE_CURVE('',#110,#108,#75,.T.);
#144=EDGE_CURVE('',#109,#110,#76,.T.);
#145=EDGE_CURVE('',#109,#111,#77,.T.);
#146=EDGE_CURVE('',#112,#110,#78,.T.);
#147=EDGE_CURVE('',#111,#112,#79,.T.);
#148=EDGE_CURVE('',#111,#113,#80,.T.);
#149=EDGE_CURVE('',#114,#112,#81,.T.);
#150=EDGE_CURVE('',#113,#114,#82,.T.);
#151=EDGE_CURVE('',#113,#115,#83,.T.);
#152=EDGE_CURVE('',#116,#114,#84,.T.);
#153=EDGE_CURVE('',#115,#116,#85,.T.);
#154=EDGE_CURVE('',#117,#118,#132,.T.);
#155=EDGE_CURVE('',#118,#117,#133,.T.);
#156=EDGE_CURVE('',#115,#119,#86,.T.);
#157=EDGE_CURVE('',#120,#116,#87,.T.);
#158=EDGE_CURVE('',#119,#120,#88,.T.);
#159=EDGE_CURVE('',#119,#121,#89,.T.);
#160=EDGE_CURVE('',#122,#120,#90,.T.);
#161=EDGE_CURVE('',#121,#122,#91,.T.);
#162=EDGE_CURVE('',#121,#123,#92,.T.);
#163=EDGE_CURVE('',#124,#122,#93,.T.);
#164=EDGE_CURVE('',#123,#124,#94,.T.);
#165=EDGE_CURVE('',#123,#125,#95,.T.);
#166=EDGE_CURVE('',#126,#124,#96,.T.);
#167=EDGE_CURVE('',#125,#126,#97,.T.);
#168=EDGE_CURVE('',#125,#105,#98,.T.);
#169=EDGE_CURVE('',#107,#126,#99,.T.);
#170=EDGE_CURVE('',#103,#127,#100,.T.);
#171=EDGE_CURVE('',#127,#128,#134,.T.);
#172=EDGE_CURVE('',#128,#127,#134,.T.);
#173=EDGE_CURVE('',#117,#129,#101,.T.);
#174=EDGE_CURVE('',#129,#129,#135,.T.);
#175=EDGE_CURVE('',#129,#128,#102,.T.);
#176=ORIENTED_EDGE('',*,*,#136,.F.);
#177=ORIENTED_EDGE('',*,*,#137,.F.);
#178=ORIENTED_EDGE('',*,*,#138,.F.);
#179=ORIENTED_EDGE('',*,*,#139,.T.);
#180=ORIENTED_EDGE('',*,*,#140,.F.);
#181=ORIENTED_EDGE('',*,*,#141,.F.);
#182=ORIENTED_EDGE('',*,*,#142,.F.);
#183=ORIENTED_EDGE('',*,*,#141,.T.);
#184=ORIENTED_EDGE('',*,*,#143,.F.);
#185=ORIENTED_EDGE('',*,*,#144,.F.);
#186=ORIENTED_EDGE('',*,*,#145,.F.);
#187=ORIENTED_EDGE('',*,*,#144,.T.);
#188=ORIENTED_EDGE('',*,*,#146,.F.);
#189=ORIENTED_EDGE('',*,*,#147,.F.);
#190=ORIENTED_EDGE('',*,*,#148,.F.);
#191=ORIENTED_EDGE('',*,*,#147,.T.);
#192=ORIENTED_EDGE('',*,*,#149,.F.);
#193=ORIENTED_EDGE('',*,*,#150,.F.);
#194=ORIENTED_EDGE('',*,*,#151,.F.);
#195=ORIENTED_EDGE('',*,*,#150,.T.);
#196=ORIENTED_EDGE('',*,*,#152,.F.);
#197=ORIENTED_EDGE('',*,*,#153,.F.);
#198=ORIENTED_EDGE('',*,*,#154,.F.);
#199=ORIENTED_EDGE('',*,*,#155,.F.);
#200=ORIENTED_EDGE('',*,*,#156,.F.);
#201=ORIENTED_EDGE('',*,*,#153,.T.);
#202=ORIENTED_EDGE('',*,*,#157,.F.);
#203=ORIENTED_EDGE('',*,*,#158,.F.);
#204=ORIENTED_EDGE('',*,*,#159,.F.);
#205=ORIENTED_EDGE('',*,*,#158,.T.);
#206=ORIENTED_EDGE('',*,*,#160,.F.);
#207=ORIENTED_EDGE('',*,*,#161,.F.);
#208=ORIENTED_EDGE('',*,*,#162,.F.);
#209=ORIENTED_EDGE('',*,*,#161,.T.);
#210=ORIENTED_EDGE('',*,*,#163,.F.);
#211=ORIENTED_EDGE('',*,*,#164,.F.);
#212=ORIENTED_EDGE('',*,*,#165,.F.);
#213=ORIENTED_EDGE('',*,*,#164,.T.);
#214=ORIENTED_EDGE('',*,*,#166,.F.);
#215=ORIENTED_EDGE('',*,*,#167,.F.);
#216=ORIENTED_EDGE('',*,*,#168,.F.);
#217=ORIENTED_EDGE('',*,*,#167,.T.);
#218=ORIENTED_EDGE('',*,*,#169,.F.);
#219=ORIENTED_EDGE('',*,*,#139,.F.);
#220=ORIENTED_EDGE('',*,*,#140,.T.);
#221=ORIENTED_EDGE('',*,*,#169,.T.);
#222=ORIENTED_EDGE('',*,*,#166,.T.);
#223=ORIENTED_EDGE('',*,*,#163,.T.);
#224=ORIENTED_EDGE('',*,*,#160,.T.);
#225=ORIENTED_EDGE('',*,*,#157,.T.);
#226=ORIENTED_EDGE('',*,*,#152,.T.);
#227=ORIENTED_EDGE('',*,*,#149,.T.);
#228=ORIENTED_EDGE('',*,*,#146,.T.);
#229=ORIENTED_EDGE('',*,*,#143,.T.);
#230=ORIENTED_EDGE('',*,*,#138,.T.);
#231=ORIENTED_EDGE('',*,*,#142,.T.);
#232=ORIENTED_EDGE('',*,*,#145,.T.);
#233=ORIENTED_EDGE('',*,*,#148,.T.);
#234=ORIENTED_EDGE('',*,*,#151,.T.);
#235=ORIENTED_EDGE('',*,*,#156,.T.);
#236=ORIENTED_EDGE('',*,*,#159,.T.);
#237=ORIENTED_EDGE('',*,*,#162,.T.);
#238=ORIENTED_EDGE('',*,*,#165,.T.);
#239=ORIENTED_EDGE('',*,*,#168,.T.);
#240=ORIENTED_EDGE('',*,*,#170,.F.);
#241=ORIENTED_EDGE('',*,*,#136,.T.);
#242=ORIENTED_EDGE('',*,*,#137,.T.);
#243=ORIENTED_EDGE('',*,*,#170,.T.);
#244=ORIENTED_EDGE('',*,*,#171,.T.);
#245=ORIENTED_EDGE('',*,*,#172,.T.);
#246=ORIENTED_EDGE('',*,*,#173,.F.);
#247=ORIENTED_EDGE('',*,*,#154,.T.);
#248=ORIENTED_EDGE('',*,*,#155,.T.);
#249=ORIENTED_EDGE('',*,*,#173,.T.);
#250=ORIENTED_EDGE('',*,*,#174,.F.);
#251=ORIENTED_EDGE('',*,*,#175,.F.);
#252=ORIENTED_EDGE('',*,*,#174,.T.);
#253=ORIENTED_EDGE('',*,*,#175,.T.);
#254=ORIENTED_EDGE('',*,*,#171,.F.);
#255=ORIENTED_EDGE('',*,*,#172,.F.);
#256=EDGE_LOOP('',(#176,#177));
#257=EDGE_LOOP('',(#178,#179,#180,#181));
#258=EDGE_LOOP('',(#182,#183,#184,#185));
#259=EDGE_LOOP('',(#186,#187,#188,#189));
#260=EDGE_LOOP('',(#190,#191,#192,#193));
#261=EDGE_LOOP('',(#194,#195,#196,#197));
#262=EDGE_LOOP('',(#198,#199));
#263=EDGE_LOOP('',(#200,#201,#202,#203));
#264=EDGE_LOOP('',(#204,#205,#206,#207));
#265=EDGE_LOOP('',(#208,#209,#210,#211));
#266=EDGE_LOOP('',(#212,#213,#214,#215));
#267=EDGE_LOOP('',(#216,#217,#218,#219));
#268=EDGE_LOOP('',(#220,#221,#222,#223,#224,#225,#226,#227,#228,#229));
#269=EDGE_LOOP('',(#230,#231,#232,#233,#234,#235,#236,#237,#238,#239));
#270=EDGE_LOOP('',(#240,#241,#242,#243,#244,#245));
#271=EDGE_LOOP('',(#246,#247,#248,#249,#250));
#272=EDGE_LOOP('',(#251,#252,#253,#254,#255));
#273=FACE_BOUND('',#256,.T.);
#274=FACE_BOUND('',#257,.T.);
#275=FACE_BOUND('',#258,.T.);
#276=FACE_BOUND('',#259,.T.);
#277=FACE_BOUND('',#260,.T.);
#278=FACE_BOUND('',#261,.T.);
#279=FACE_BOUND('',#262,.T.);
#280=FACE_BOUND('',#263,.T.);
#281=FACE_BOUND('',#264,.T.);
#282=FACE_BOUND('',#265,.T.);
#283=FACE_BOUND('',#266,.T.);
#284=FACE_BOUND('',#267,.T.);
#285=FACE_BOUND('',#268,.T.);
#286=FACE_BOUND('',#269,.T.);
#287=FACE_BOUND('',#270,.T.);
#288=FACE_BOUND('',#271,.T.);
#289=FACE_BOUND('',#272,.T.);
#290=ADVANCED_FACE('',(#273,#274),#470,.F.);
#291=ADVANCED_FACE('',(#275),#471,.F.);
#292=ADVANCED_FACE('',(#276),#472,.F.);
#293=ADVANCED_FACE('',(#277),#473,.F.);
#294=ADVANCED_FACE('',(#278),#474,.F.);
#295=ADVANCED_FACE('',(#279,#280),#475,.F.);
#296=ADVANCED_FACE('',(#281),#476,.F.);
#297=ADVANCED_FACE('',(#282),#477,.F.);
#298=ADVANCED_FACE('',(#283),#478,.F.);
#299=ADVANCED_FACE('',(#284),#479,.F.);
#300=ADVANCED_FACE('',(#285),#480,.T.);
#301=ADVANCED_FACE('',(#286),#481,.T.);
#302=ADVANCED_FACE('',(#287),#35,.F.);
#303=ADVANCED_FACE('',(#288),#36,.F.);
#304=ADVANCED_FACE('',(#289),#34,.F.);
#305=AXIS2_PLACEMENT_3D('',#389,#326,$);
#306=AXIS2_PLACEMENT_3D('',#390,#327,#328);
#307=AXIS2_PLACEMENT_3D('',#393,#329,#330);
#308=AXIS2_PLACEMENT_3D('',#402,#335,$);
#309=AXIS2_PLACEMENT_3D('',#408,#339,$);
#310=AXIS2_PLACEMENT_3D('',#414,#343,$);
#311=AXIS2_PLACEMENT_3D('',#420,#347,$);
#312=AXIS2_PLACEMENT_3D('',#426,#351,$);
#313=AXIS2_PLACEMENT_3D('',#427,#352,#353);
#314=AXIS2_PLACEMENT_3D('',#430,#354,#355);
#315=AXIS2_PLACEMENT_3D('',#436,#359,$);
#316=AXIS2_PLACEMENT_3D('',#442,#363,$);
#317=AXIS2_PLACEMENT_3D('',#448,#367,$);
#318=AXIS2_PLACEMENT_3D('',#454,#371,$);
#319=AXIS2_PLACEMENT_3D('',#457,#374,$);
#320=AXIS2_PLACEMENT_3D('',#458,#375,$);
#321=AXIS2_PLACEMENT_3D('',#459,#376,#377);
#322=AXIS2_PLACEMENT_3D('',#462,#379,#380);
#323=AXIS2_PLACEMENT_3D('',#464,#381,#382);
#324=AXIS2_PLACEMENT_3D('',#467,#384,#385);
#325=AXIS2_PLACEMENT_3D('',#468,#386,#387);
#326=DIRECTION('',(1.,-1.0842021724855E-16,0.));
#327=DIRECTION('',(-1.,1.0842021724855E-16,0.));
#328=DIRECTION('',(3.2526065174565E-16,3.,0.));
#329=DIRECTION('',(-1.,1.0842021724855E-16,0.));
#330=DIRECTION('',(3.2526065174565E-16,3.,0.));
#331=DIRECTION('',(0.,-0.866025403784438,0.5));
#332=DIRECTION('',(0.,0.,-1.));
#333=DIRECTION('',(0.,0.866025403784438,-0.500000000000001));
#334=DIRECTION('',(0.,0.,-1.));
#335=DIRECTION('',(-2.16840434497101E-16,1.,0.));
#336=DIRECTION('',(1.,0.,0.));
#337=DIRECTION('',(-1.,0.,2.55351295663786E-15));
#338=DIRECTION('',(0.,0.,-1.));
#339=DIRECTION('',(1.,1.84316000508691E-17,0.));
#340=DIRECTION('',(1.59622338764473E-17,-0.866025403784438,0.500000000000002));
#341=DIRECTION('',(-1.59622338764473E-17,0.866025403784438,-0.500000000000002));
#342=DIRECTION('',(0.,0.,-1.));
#343=DIRECTION('',(0.,1.,0.));
#344=DIRECTION('',(1.,0.,0.));
#345=DIRECTION('',(-1.,0.,3.99680288865056E-16));
#346=DIRECTION('',(0.,0.,-1.));
#347=DIRECTION('',(-0.707106781186548,0.707106781186547,0.));
#348=DIRECTION('',(0.654653670707976,0.654653670707976,-0.37796447300923));
#349=DIRECTION('',(-0.654653670707977,-0.654653670707977,0.377964473009229));
#350=DIRECTION('',(0.,0.,-1.));
#351=DIRECTION('',(-1.,0.,0.));
#352=DIRECTION('',(1.,0.,0.));
#353=DIRECTION('',(0.,0.,3.));
#354=DIRECTION('',(1.,0.,0.));
#355=DIRECTION('',(0.,0.,3.));
#356=DIRECTION('',(0.,0.866025403784439,-0.5));
#357=DIRECTION('',(0.,-0.866025403784438,0.5));
#358=DIRECTION('',(0.,0.,-1.));
#359=DIRECTION('',(-0.707106781186547,-0.707106781186548,0.));
#360=DIRECTION('',(-0.654653670707976,0.654653670707976,-0.377964473009231));
#361=DIRECTION('',(0.654653670707978,-0.654653670707978,0.377964473009224));
#362=DIRECTION('',(0.,0.,-1.));
#363=DIRECTION('',(0.,-1.,0.));
#364=DIRECTION('',(-1.,0.,-3.99680288865056E-16));
#365=DIRECTION('',(1.,0.,0.));
#366=DIRECTION('',(0.,0.,-1.));
#367=DIRECTION('',(1.,4.53243111811838E-16,0.));
#368=DIRECTION('',(3.92520048919363E-16,-0.866025403784439,0.5));
#369=DIRECTION('',(-3.92520048919363E-16,0.866025403784439,-0.499999999999999));
#370=DIRECTION('',(0.,0.,-1.));
#371=DIRECTION('',(0.,-1.,0.));
#372=DIRECTION('',(-1.,0.,0.));
#373=DIRECTION('',(1.,0.,0.));
#374=DIRECTION('',(0.,-0.5,-0.866025403784438));
#375=DIRECTION('',(0.,0.5,0.866025403784439));
#376=DIRECTION('',(-1.,0.,-6.12323399573677E-17));
#377=DIRECTION('',(-2.44929359829471E-16,0.,4.));
#378=DIRECTION('',(0.707106781186546,0.,-0.707106781186549));
#379=DIRECTION('',(1.,0.,6.12323399573677E-17));
#380=DIRECTION('',(1.50539707785188E-16,0.,-2.4585));
#381=DIRECTION('',(1.,0.,6.12323399573677E-17));
#382=DIRECTION('',(1.50539707785188E-16,0.,-2.4585));
#383=DIRECTION('',(-0.707106781186548,0.,0.707106781186547));
#384=DIRECTION('',(1.,0.,6.12323399573677E-17));
#385=DIRECTION('',(1.50539707785188E-16,0.,-2.4585));
#386=DIRECTION('',(1.,0.,6.12323399573677E-17));
#387=DIRECTION('',(1.50539707785188E-16,0.,-2.4585));
#388=DIRECTION('',(-1.,0.,-6.12323399573677E-17));
#389=CARTESIAN_POINT('',(-4.,4.,16.));
#390=CARTESIAN_POINT('',(-4.,1.40612655801396E-16,-3.06161699786839E-16));
#391=CARTESIAN_POINT('',(-4.,1.68054030175748E-17,3.));
#392=CARTESIAN_POINT('',(-4.,3.,-8.15503702290538E-16));
#393=CARTESIAN_POINT('',(-4.,1.40612655801396E-16,-3.06161699786839E-16));
#394=CARTESIAN_POINT('',(-4.,4.,2.30940107675849));
#395=CARTESIAN_POINT('',(-4.,4.,2.30940107675849));
#396=CARTESIAN_POINT('',(-4.,-4.,6.9282032302755));
#397=CARTESIAN_POINT('',(-4.,4.,2.30940107675849));
#398=CARTESIAN_POINT('',(-4.,4.,-6.92820323027552));
#399=CARTESIAN_POINT('',(-4.,-4.,-2.3094010767585));
#400=CARTESIAN_POINT('',(-4.,-4.,-2.3094010767585));
#401=CARTESIAN_POINT('',(-4.,-4.,6.9282032302755));
#402=CARTESIAN_POINT('',(-4.,-4.,16.));
#403=CARTESIAN_POINT('',(-4.,-4.,6.9282032302755));
#404=CARTESIAN_POINT('',(-2.22044604925032E-16,-4.,6.9282032302755));
#405=CARTESIAN_POINT('',(-4.44089209850063E-16,-4.,-2.30940107675851));
#406=CARTESIAN_POINT('',(-2.22044604925032E-16,-4.,-2.30940107675851));
#407=CARTESIAN_POINT('',(-4.44089209850063E-16,-4.,6.9282032302755));
#408=CARTESIAN_POINT('',(-4.44089209850063E-16,-4.,16.));
#409=CARTESIAN_POINT('',(-4.44089209850063E-16,-4.,6.9282032302755));
#410=CARTESIAN_POINT('',(-1.99005104861445E-16,-6.5,8.37157890324957));
#411=CARTESIAN_POINT('',(-3.9801020972289E-16,-6.5,-0.866025403784439));
#412=CARTESIAN_POINT('',(-1.99005104861445E-16,-6.5,-0.866025403784439));
#413=CARTESIAN_POINT('',(-3.9801020972289E-16,-6.5,8.37157890324957));
#414=CARTESIAN_POINT('',(-3.9801020972289E-16,-6.5,16.));
#415=CARTESIAN_POINT('',(-3.9801020972289E-16,-6.5,8.37157890324957));
#416=CARTESIAN_POINT('',(5.,-6.5,8.37157890324957));
#417=CARTESIAN_POINT('',(5.,-6.5,-0.866025403784441));
#418=CARTESIAN_POINT('',(5.,-6.5,-0.866025403784441));
#419=CARTESIAN_POINT('',(5.,-6.5,8.37157890324957));
#420=CARTESIAN_POINT('',(5.,-6.5,16.));
#421=CARTESIAN_POINT('',(5.,-6.5,8.37157890324957));
#422=CARTESIAN_POINT('',(6.,-5.5,7.79422863405994));
#423=CARTESIAN_POINT('',(6.,-5.5,-1.44337567297407));
#424=CARTESIAN_POINT('',(6.,-5.5,-1.44337567297407));
#425=CARTESIAN_POINT('',(6.,-5.5,7.79422863405994));
#426=CARTESIAN_POINT('',(6.,-5.5,16.));
#427=CARTESIAN_POINT('',(6.,0.,5.51091059616308E-16));
#428=CARTESIAN_POINT('',(6.,-1.83697019872103E-16,-3.));
#429=CARTESIAN_POINT('',(6.,-1.15042755158785E-16,3.));
#430=CARTESIAN_POINT('',(6.,0.,5.51091059616308E-16));
#431=CARTESIAN_POINT('',(6.,-5.5,7.79422863405994));
#432=CARTESIAN_POINT('',(6.,5.5,1.44337567297406));
#433=CARTESIAN_POINT('',(6.,5.5,-7.79422863405996));
#434=CARTESIAN_POINT('',(6.,5.5,-7.79422863405996));
#435=CARTESIAN_POINT('',(6.,5.5,1.44337567297406));
#436=CARTESIAN_POINT('',(6.,5.5,16.));
#437=CARTESIAN_POINT('',(6.,5.5,1.44337567297406));
#438=CARTESIAN_POINT('',(5.,6.5,0.86602540378443));
#439=CARTESIAN_POINT('',(5.,6.5,-8.37157890324958));
#440=CARTESIAN_POINT('',(5.,6.5,-8.37157890324958));
#441=CARTESIAN_POINT('',(5.,6.5,0.866025403784427));
#442=CARTESIAN_POINT('',(5.,6.5,16.));
#443=CARTESIAN_POINT('',(5.,6.5,0.866025403784427));
#444=CARTESIAN_POINT('',(-4.44089209850063E-16,6.5,0.866025403784429));
#445=CARTESIAN_POINT('',(-8.88178419700125E-16,6.5,-8.37157890324958));
#446=CARTESIAN_POINT('',(-4.44089209850063E-16,6.5,-8.37157890324958));
#447=CARTESIAN_POINT('',(-8.88178419700125E-16,6.5,0.866025403784425));
#448=CARTESIAN_POINT('',(-8.88178419700125E-16,6.5,16.));
#449=CARTESIAN_POINT('',(-8.88178419700125E-16,6.5,0.866025403784425));
#450=CARTESIAN_POINT('',(1.22464679914735E-16,4.,2.30940107675849));
#451=CARTESIAN_POINT('',(2.44929359829471E-16,4.,-6.92820323027552));
#452=CARTESIAN_POINT('',(1.22464679914735E-16,4.,-6.92820323027552));
#453=CARTESIAN_POINT('',(2.44929359829471E-16,4.,2.30940107675849));
#454=CARTESIAN_POINT('',(2.44929359829471E-16,4.,16.));
#455=CARTESIAN_POINT('',(2.44929359829471E-16,4.,2.30940107675849));
#456=CARTESIAN_POINT('',(-4.,4.,-6.92820323027552));
#457=CARTESIAN_POINT('',(10.,7.5,-8.94892917243921));
#458=CARTESIAN_POINT('',(10.,-7.49999999999999,8.94892917243919));
#459=CARTESIAN_POINT('',(-5.,0.,-3.06161699786839E-16));
#460=CARTESIAN_POINT('',(-2.40435,0.,1.40434999999999));
#461=CARTESIAN_POINT('',(-3.4585,1.50539707785188E-16,2.4585));
#462=CARTESIAN_POINT('',(-3.4585,0.,-2.11772047742557E-16));
#463=CARTESIAN_POINT('',(-3.4585,2.03304693704757E-15,-2.4585));
#464=CARTESIAN_POINT('',(5.4585,0.,3.34236727657291E-16));
#465=CARTESIAN_POINT('',(5.94585,0.,-2.94585));
#466=CARTESIAN_POINT('',(5.4585,-2.48466606040314E-15,-2.4585));
#467=CARTESIAN_POINT('',(5.4585,0.,3.34236727657291E-16));
#468=CARTESIAN_POINT('',(51.,0.,3.12284933782575E-15));
#469=CARTESIAN_POINT('',(-49.,0.,-2.4585));
#470=PLANE('',#305);
#471=PLANE('',#308);
#472=PLANE('',#309);
#473=PLANE('',#310);
#474=PLANE('',#311);
#475=PLANE('',#312);
#476=PLANE('',#315);
#477=PLANE('',#316);
#478=PLANE('',#317);
#479=PLANE('',#318);
#480=PLANE('',#319);
#481=PLANE('',#320);
#482=CLOSED_SHELL('',(#290,#291,#292,#293,#294,#295,#296,#297,#298,#299,
#300,#301,#302,#303,#304));
#483=MANIFOLD_SOLID_BREP('',#482);
#484=ADVANCED_BREP_SHAPE_REPRESENTATION('',(#483),#33);
ENDSEC;
END-ISO-10303-21;
