ISO-10303-21;
HEADER;

/* File generated by Alibre Version V23 */

FILE_DESCRIPTION(('HOOPS Exchange Step'),'2;1');

FILE_NAME('C:\\Users\\Gebruiker\\AppData\\Local\\Temp\\Alibre Design\\export-5D70DF0E-6BA8-4CED-AF44-DD9798E28A38.stp',
'2023-03-27T13:31:33+02:00',
('Engineering'),
('Alibre'),
'HOOPS Exchange 2021.0',
'Alibre',
'Unknown authorisation');

FILE_SCHEMA( ('AP242_MANAGED_MODEL_BASED_3D_ENGINEERING_MIM_LF {1 0 10303 442 1 1 4 }') );

ENDSEC;

DATA;
#3=(NAMED_UNIT(*)PLANE_ANGLE_UNIT()SI_UNIT($,.RADIAN.));
#4=PLANE_ANGLE_MEASURE_WITH_UNIT(PLANE_ANGLE_MEASURE(0.0174532925),#3);
#5=(CONVERSION_BASED_UNIT('DEGREE',#4)NAMED_UNIT(#6)PLANE_ANGLE_UNIT());
#6=DIMENSIONAL_EXPONENTS(0.,0.,0.,0.,0.,0.,0.);
#7=(NAMED_UNIT(*)SI_UNIT($,.STERADIAN.)SOLID_ANGLE_UNIT());
#8=(LENGTH_UNIT()NAMED_UNIT(*)SI_UNIT(.MILLI.,.METRE.));
#9=UNCERTAINTY_MEASURE_WITH_UNIT(LENGTH_MEASURE(1.000000E-06),#8,'DISTANCE_ACCURACY_VALUE','Maximum Tolerance applied to model');
#10=(GEOMETRIC_REPRESENTATION_CONTEXT(3)GLOBAL_UNCERTAINTY_ASSIGNED_CONTEXT((#9))GLOBAL_UNIT_ASSIGNED_CONTEXT((#8,#5,#7))REPRESENTATION_CONTEXT('','6266 M6 T-nut Rhombus DIN508.1 for T-slot=8mm wide'));
#12=CARTESIAN_POINT('',(0.,0.,0.));
#13=DIRECTION('',(0.,0.,1.));
#14=DIRECTION('',(1.,0.,0.));
#15=AXIS2_PLACEMENT_3D('',#12,#13,#14);
#27=CARTESIAN_POINT('',(-4.,4.,16.));
#28=DIRECTION('',(1.,-0.,0.));
#29=DIRECTION('',(0.,1.,0.));
#30=AXIS2_PLACEMENT_3D('',#27,#28,#29);
#31=PLANE('',#30);
#32=CARTESIAN_POINT('',(-4.,0.,3.));
#33=VERTEX_POINT('',#32);
#34=CARTESIAN_POINT('',(-4.,3.,-0.));
#35=VERTEX_POINT('',#34);
#36=CARTESIAN_POINT('',(-4.,0.,-0.));
#37=DIRECTION('',(-1.,0.,0.));
#38=DIRECTION('',(0.,1.,0.));
#39=AXIS2_PLACEMENT_3D('',#36,#37,#38);
#40=CIRCLE('',#39,3.);
#41=EDGE_CURVE('',#33,#35,#40,.T.);
#42=ORIENTED_EDGE('',*,*,#41,.F.);
#43=CARTESIAN_POINT('',(-4.,0.,-3.));
#44=VERTEX_POINT('',#43);
#45=CARTESIAN_POINT('',(-4.,0.,-0.));
#46=DIRECTION('',(-1.,0.,0.));
#47=DIRECTION('',(0.,1.,0.));
#48=AXIS2_PLACEMENT_3D('',#45,#46,#47);
#49=CIRCLE('',#48,3.);
#50=EDGE_CURVE('',#44,#33,#49,.T.);
#51=ORIENTED_EDGE('',*,*,#50,.F.);
#52=CARTESIAN_POINT('',(-4.,0.,-0.));
#53=DIRECTION('',(-1.,0.,0.));
#54=DIRECTION('',(0.,1.,0.));
#55=AXIS2_PLACEMENT_3D('',#52,#53,#54);
#56=CIRCLE('',#55,3.);
#57=EDGE_CURVE('',#35,#44,#56,.T.);
#58=ORIENTED_EDGE('',*,*,#57,.F.);
#59=EDGE_LOOP('',(#42,#51,#58));
#60=FACE_BOUND('',#59,.T.);
#61=CARTESIAN_POINT('',(-4.,4.,2.309401077));
#62=VERTEX_POINT('',#61);
#63=CARTESIAN_POINT('',(-4.,-4.,6.92820323));
#64=VERTEX_POINT('',#63);
#65=CARTESIAN_POINT('',(-4.,4.,2.309401077));
#66=DIRECTION('',(0.,-0.866025404,0.5));
#67=VECTOR('',#66,9.237604307);
#68=LINE('',#65,#67);
#69=EDGE_CURVE('',#62,#64,#68,.T.);
#70=ORIENTED_EDGE('',*,*,#69,.F.);
#71=CARTESIAN_POINT('',(-4.,4.,-6.92820323));
#72=VERTEX_POINT('',#71);
#73=CARTESIAN_POINT('',(-4.,4.,2.309401077));
#74=DIRECTION('',(0.,0.,-1.));
#75=VECTOR('',#74,9.237604307);
#76=LINE('',#73,#75);
#77=EDGE_CURVE('',#62,#72,#76,.T.);
#78=ORIENTED_EDGE('',*,*,#77,.T.);
#79=CARTESIAN_POINT('',(-4.,-4.,-2.309401077));
#80=VERTEX_POINT('',#79);
#81=CARTESIAN_POINT('',(-4.,-4.,-2.309401077));
#82=DIRECTION('',(0.,0.866025404,-0.5));
#83=VECTOR('',#82,9.237604307);
#84=LINE('',#81,#83);
#85=EDGE_CURVE('',#80,#72,#84,.T.);
#86=ORIENTED_EDGE('',*,*,#85,.F.);
#87=CARTESIAN_POINT('',(-4.,-4.,6.92820323));
#88=DIRECTION('',(0.,0.,-1.));
#89=VECTOR('',#88,9.237604307);
#90=LINE('',#87,#89);
#91=EDGE_CURVE('',#64,#80,#90,.T.);
#92=ORIENTED_EDGE('',*,*,#91,.F.);
#93=EDGE_LOOP('',(#70,#78,#86,#92));
#94=FACE_BOUND('',#93,.T.);
#95=ADVANCED_FACE('',(#60,#94),#31,.F.);
#96=CARTESIAN_POINT('',(-4.,-4.,16.));
#97=DIRECTION('',(-0.,1.,0.));
#98=DIRECTION('',(-1.,-0.,0.));
#99=AXIS2_PLACEMENT_3D('',#96,#97,#98);
#100=PLANE('',#99);
#101=CARTESIAN_POINT('',(-0.,-4.,6.92820323));
#102=VERTEX_POINT('',#101);
#103=CARTESIAN_POINT('',(-4.,-4.,6.92820323));
#104=DIRECTION('',(1.,0.,-0.));
#105=VECTOR('',#104,4.);
#106=LINE('',#103,#105);
#107=EDGE_CURVE('',#64,#102,#106,.T.);
#108=ORIENTED_EDGE('',*,*,#107,.F.);
#109=ORIENTED_EDGE('',*,*,#91,.T.);
#110=CARTESIAN_POINT('',(-0.,-4.,-2.309401077));
#111=VERTEX_POINT('',#110);
#112=CARTESIAN_POINT('',(-0.,-4.,-2.309401077));
#113=DIRECTION('',(-1.,0.,0.));
#114=VECTOR('',#113,4.);
#115=LINE('',#112,#114);
#116=EDGE_CURVE('',#111,#80,#115,.T.);
#117=ORIENTED_EDGE('',*,*,#116,.F.);
#118=CARTESIAN_POINT('',(-0.,-4.,6.92820323));
#119=DIRECTION('',(0.,0.,-1.));
#120=VECTOR('',#119,9.237604307);
#121=LINE('',#118,#120);
#122=EDGE_CURVE('',#102,#111,#121,.T.);
#123=ORIENTED_EDGE('',*,*,#122,.F.);
#124=EDGE_LOOP('',(#108,#109,#117,#123));
#125=FACE_BOUND('',#124,.T.);
#126=ADVANCED_FACE('',(#125),#100,.F.);
#127=CARTESIAN_POINT('',(-0.,-4.,16.));
#128=DIRECTION('',(1.,0.,0.));
#129=DIRECTION('',(-0.,1.,0.));
#130=AXIS2_PLACEMENT_3D('',#127,#128,#129);
#131=PLANE('',#130);
#132=CARTESIAN_POINT('',(-0.,-6.5,8.371578903));
#133=VERTEX_POINT('',#132);
#134=CARTESIAN_POINT('',(-0.,-4.,6.92820323));
#135=DIRECTION('',(0.,-0.866025404,0.5));
#136=VECTOR('',#135,2.886751346);
#137=LINE('',#134,#136);
#138=EDGE_CURVE('',#102,#133,#137,.T.);
#139=ORIENTED_EDGE('',*,*,#138,.F.);
#140=ORIENTED_EDGE('',*,*,#122,.T.);
#141=CARTESIAN_POINT('',(-0.,-6.5,-0.866025404));
#142=VERTEX_POINT('',#141);
#143=CARTESIAN_POINT('',(-0.,-6.5,-0.866025404));
#144=DIRECTION('',(-0.,0.866025404,-0.5));
#145=VECTOR('',#144,2.886751346);
#146=LINE('',#143,#145);
#147=EDGE_CURVE('',#142,#111,#146,.T.);
#148=ORIENTED_EDGE('',*,*,#147,.F.);
#149=CARTESIAN_POINT('',(-0.,-6.5,8.371578903));
#150=DIRECTION('',(0.,0.,-1.));
#151=VECTOR('',#150,9.237604307);
#152=LINE('',#149,#151);
#153=EDGE_CURVE('',#133,#142,#152,.T.);
#154=ORIENTED_EDGE('',*,*,#153,.F.);
#155=EDGE_LOOP('',(#139,#140,#148,#154));
#156=FACE_BOUND('',#155,.T.);
#157=ADVANCED_FACE('',(#156),#131,.F.);
#158=CARTESIAN_POINT('',(-0.,-6.5,16.));
#159=DIRECTION('',(0.,1.,0.));
#160=DIRECTION('',(0.,0.,1.));
#161=AXIS2_PLACEMENT_3D('',#158,#159,#160);
#162=PLANE('',#161);
#163=CARTESIAN_POINT('',(5.,-6.5,8.371578903));
#164=VERTEX_POINT('',#163);
#165=CARTESIAN_POINT('',(-0.,-6.5,8.371578903));
#166=DIRECTION('',(1.,0.,-0.));
#167=VECTOR('',#166,5.);
#168=LINE('',#165,#167);
#169=EDGE_CURVE('',#133,#164,#168,.T.);
#170=ORIENTED_EDGE('',*,*,#169,.F.);
#171=ORIENTED_EDGE('',*,*,#153,.T.);
#172=CARTESIAN_POINT('',(5.,-6.5,-0.866025404));
#173=VERTEX_POINT('',#172);
#174=CARTESIAN_POINT('',(5.,-6.5,-0.866025404));
#175=DIRECTION('',(-1.,0.,0.));
#176=VECTOR('',#175,5.);
#177=LINE('',#174,#176);
#178=EDGE_CURVE('',#173,#142,#177,.T.);
#179=ORIENTED_EDGE('',*,*,#178,.F.);
#180=CARTESIAN_POINT('',(5.,-6.5,8.371578903));
#181=DIRECTION('',(0.,0.,-1.));
#182=VECTOR('',#181,9.237604307);
#183=LINE('',#180,#182);
#184=EDGE_CURVE('',#164,#173,#183,.T.);
#185=ORIENTED_EDGE('',*,*,#184,.F.);
#186=EDGE_LOOP('',(#170,#171,#179,#185));
#187=FACE_BOUND('',#186,.T.);
#188=ADVANCED_FACE('',(#187),#162,.F.);
#189=CARTESIAN_POINT('',(5.,-6.5,16.));
#190=DIRECTION('',(-0.707106781,0.707106781,0.));
#191=DIRECTION('',(-0.707106781,-0.707106781,0.));
#192=AXIS2_PLACEMENT_3D('',#189,#190,#191);
#193=PLANE('',#192);
#194=CARTESIAN_POINT('',(6.,-5.5,7.794228634));
#195=VERTEX_POINT('',#194);
#196=CARTESIAN_POINT('',(5.,-6.5,8.371578903));
#197=DIRECTION('',(0.654653671,0.654653671,-0.377964473));
#198=VECTOR('',#197,1.527525232);
#199=LINE('',#196,#198);
#200=EDGE_CURVE('',#164,#195,#199,.T.);
#201=ORIENTED_EDGE('',*,*,#200,.F.);
#202=ORIENTED_EDGE('',*,*,#184,.T.);
#203=CARTESIAN_POINT('',(6.,-5.5,-1.443375673));
#204=VERTEX_POINT('',#203);
#205=CARTESIAN_POINT('',(6.,-5.5,-1.443375673));
#206=DIRECTION('',(-0.654653671,-0.654653671,0.377964473));
#207=VECTOR('',#206,1.527525232);
#208=LINE('',#205,#207);
#209=EDGE_CURVE('',#204,#173,#208,.T.);
#210=ORIENTED_EDGE('',*,*,#209,.F.);
#211=CARTESIAN_POINT('',(6.,-5.5,7.794228634));
#212=DIRECTION('',(0.,0.,-1.));
#213=VECTOR('',#212,9.237604307);
#214=LINE('',#211,#213);
#215=EDGE_CURVE('',#195,#204,#214,.T.);
#216=ORIENTED_EDGE('',*,*,#215,.F.);
#217=EDGE_LOOP('',(#201,#202,#210,#216));
#218=FACE_BOUND('',#217,.T.);
#219=ADVANCED_FACE('',(#218),#193,.F.);
#220=CARTESIAN_POINT('',(6.,-5.5,16.));
#221=DIRECTION('',(-1.,0.,0.));
#222=DIRECTION('',(0.,0.,1.));
#223=AXIS2_PLACEMENT_3D('',#220,#221,#222);
#224=PLANE('',#223);
#225=CARTESIAN_POINT('',(6.,-0.,-3.));
#226=VERTEX_POINT('',#225);
#227=CARTESIAN_POINT('',(6.,-0.,3.));
#228=VERTEX_POINT('',#227);
#229=CARTESIAN_POINT('',(6.,0.,0.));
#230=DIRECTION('',(1.,-0.,0.));
#231=DIRECTION('',(0.,0.,1.));
#232=AXIS2_PLACEMENT_3D('',#229,#230,#231);
#233=CIRCLE('',#232,3.);
#234=EDGE_CURVE('',#226,#228,#233,.T.);
#235=ORIENTED_EDGE('',*,*,#234,.F.);
#236=CARTESIAN_POINT('',(6.,0.,0.));
#237=DIRECTION('',(1.,-0.,0.));
#238=DIRECTION('',(0.,0.,1.));
#239=AXIS2_PLACEMENT_3D('',#236,#237,#238);
#240=CIRCLE('',#239,3.);
#241=EDGE_CURVE('',#228,#226,#240,.T.);
#242=ORIENTED_EDGE('',*,*,#241,.F.);
#243=EDGE_LOOP('',(#235,#242));
#244=FACE_BOUND('',#243,.T.);
#245=CARTESIAN_POINT('',(6.,5.5,1.443375673));
#246=VERTEX_POINT('',#245);
#247=CARTESIAN_POINT('',(6.,-5.5,7.794228634));
#248=DIRECTION('',(0.,0.866025404,-0.5));
#249=VECTOR('',#248,12.701705922);
#250=LINE('',#247,#249);
#251=EDGE_CURVE('',#195,#246,#250,.T.);
#252=ORIENTED_EDGE('',*,*,#251,.F.);
#253=ORIENTED_EDGE('',*,*,#215,.T.);
#254=CARTESIAN_POINT('',(6.,5.5,-7.794228634));
#255=VERTEX_POINT('',#254);
#256=CARTESIAN_POINT('',(6.,5.5,-7.794228634));
#257=DIRECTION('',(0.,-0.866025404,0.5));
#258=VECTOR('',#257,12.701705922);
#259=LINE('',#256,#258);
#260=EDGE_CURVE('',#255,#204,#259,.T.);
#261=ORIENTED_EDGE('',*,*,#260,.F.);
#262=CARTESIAN_POINT('',(6.,5.5,1.443375673));
#263=DIRECTION('',(0.,0.,-1.));
#264=VECTOR('',#263,9.237604307);
#265=LINE('',#262,#264);
#266=EDGE_CURVE('',#246,#255,#265,.T.);
#267=ORIENTED_EDGE('',*,*,#266,.F.);
#268=EDGE_LOOP('',(#252,#253,#261,#267));
#269=FACE_BOUND('',#268,.T.);
#270=ADVANCED_FACE('',(#244,#269),#224,.F.);
#271=CARTESIAN_POINT('',(6.,5.5,16.));
#272=DIRECTION('',(-0.707106781,-0.707106781,0.));
#273=DIRECTION('',(0.707106781,-0.707106781,0.));
#274=AXIS2_PLACEMENT_3D('',#271,#272,#273);
#275=PLANE('',#274);
#276=CARTESIAN_POINT('',(5.,6.5,0.866025404));
#277=VERTEX_POINT('',#276);
#278=CARTESIAN_POINT('',(6.,5.5,1.443375673));
#279=DIRECTION('',(-0.654653671,0.654653671,-0.377964473));
#280=VECTOR('',#279,1.527525232);
#281=LINE('',#278,#280);
#282=EDGE_CURVE('',#246,#277,#281,.T.);
#283=ORIENTED_EDGE('',*,*,#282,.F.);
#284=ORIENTED_EDGE('',*,*,#266,.T.);
#285=CARTESIAN_POINT('',(5.,6.5,-8.371578903));
#286=VERTEX_POINT('',#285);
#287=CARTESIAN_POINT('',(5.,6.5,-8.371578903));
#288=DIRECTION('',(0.654653671,-0.654653671,0.377964473));
#289=VECTOR('',#288,1.527525232);
#290=LINE('',#287,#289);
#291=EDGE_CURVE('',#286,#255,#290,.T.);
#292=ORIENTED_EDGE('',*,*,#291,.F.);
#293=CARTESIAN_POINT('',(5.,6.5,0.866025404));
#294=DIRECTION('',(0.,0.,-1.));
#295=VECTOR('',#294,9.237604307);
#296=LINE('',#293,#295);
#297=EDGE_CURVE('',#277,#286,#296,.T.);
#298=ORIENTED_EDGE('',*,*,#297,.F.);
#299=EDGE_LOOP('',(#283,#284,#292,#298));
#300=FACE_BOUND('',#299,.T.);
#301=ADVANCED_FACE('',(#300),#275,.F.);
#302=CARTESIAN_POINT('',(5.,6.5,16.));
#303=DIRECTION('',(0.,-1.,0.));
#304=DIRECTION('',(0.,0.,-1.));
#305=AXIS2_PLACEMENT_3D('',#302,#303,#304);
#306=PLANE('',#305);
#307=CARTESIAN_POINT('',(-0.,6.5,0.866025404));
#308=VERTEX_POINT('',#307);
#309=CARTESIAN_POINT('',(5.,6.5,0.866025404));
#310=DIRECTION('',(-1.,0.,-0.));
#311=VECTOR('',#310,5.);
#312=LINE('',#309,#311);
#313=EDGE_CURVE('',#277,#308,#312,.T.);
#314=ORIENTED_EDGE('',*,*,#313,.F.);
#315=ORIENTED_EDGE('',*,*,#297,.T.);
#316=CARTESIAN_POINT('',(-0.,6.5,-8.371578903));
#317=VERTEX_POINT('',#316);
#318=CARTESIAN_POINT('',(-0.,6.5,-8.371578903));
#319=DIRECTION('',(1.,0.,-0.));
#320=VECTOR('',#319,5.);
#321=LINE('',#318,#320);
#322=EDGE_CURVE('',#317,#286,#321,.T.);
#323=ORIENTED_EDGE('',*,*,#322,.F.);
#324=CARTESIAN_POINT('',(-0.,6.5,0.866025404));
#325=DIRECTION('',(0.,0.,-1.));
#326=VECTOR('',#325,9.237604307);
#327=LINE('',#324,#326);
#328=EDGE_CURVE('',#308,#317,#327,.T.);
#329=ORIENTED_EDGE('',*,*,#328,.F.);
#330=EDGE_LOOP('',(#314,#315,#323,#329));
#331=FACE_BOUND('',#330,.T.);
#332=ADVANCED_FACE('',(#331),#306,.F.);
#333=CARTESIAN_POINT('',(-0.,6.5,16.));
#334=DIRECTION('',(1.,0.,0.));
#335=DIRECTION('',(-0.,1.,0.));
#336=AXIS2_PLACEMENT_3D('',#333,#334,#335);
#337=PLANE('',#336);
#338=CARTESIAN_POINT('',(0.,4.,2.309401077));
#339=VERTEX_POINT('',#338);
#340=CARTESIAN_POINT('',(-0.,6.5,0.866025404));
#341=DIRECTION('',(0.,-0.866025404,0.5));
#342=VECTOR('',#341,2.886751346);
#343=LINE('',#340,#342);
#344=EDGE_CURVE('',#308,#339,#343,.T.);
#345=ORIENTED_EDGE('',*,*,#344,.F.);
#346=ORIENTED_EDGE('',*,*,#328,.T.);
#347=CARTESIAN_POINT('',(0.,4.,-6.92820323));
#348=VERTEX_POINT('',#347);
#349=CARTESIAN_POINT('',(0.,4.,-6.92820323));
#350=DIRECTION('',(-0.,0.866025404,-0.5));
#351=VECTOR('',#350,2.886751346);
#352=LINE('',#349,#351);
#353=EDGE_CURVE('',#348,#317,#352,.T.);
#354=ORIENTED_EDGE('',*,*,#353,.F.);
#355=CARTESIAN_POINT('',(0.,4.,2.309401077));
#356=DIRECTION('',(0.,0.,-1.));
#357=VECTOR('',#356,9.237604307);
#358=LINE('',#355,#357);
#359=EDGE_CURVE('',#339,#348,#358,.T.);
#360=ORIENTED_EDGE('',*,*,#359,.F.);
#361=EDGE_LOOP('',(#345,#346,#354,#360));
#362=FACE_BOUND('',#361,.T.);
#363=ADVANCED_FACE('',(#362),#337,.F.);
#364=CARTESIAN_POINT('',(0.,4.,16.));
#365=DIRECTION('',(0.,-1.,0.));
#366=DIRECTION('',(0.,0.,-1.));
#367=AXIS2_PLACEMENT_3D('',#364,#365,#366);
#368=PLANE('',#367);
#369=CARTESIAN_POINT('',(0.,4.,2.309401077));
#370=DIRECTION('',(-1.,0.,0.));
#371=VECTOR('',#370,4.);
#372=LINE('',#369,#371);
#373=EDGE_CURVE('',#339,#62,#372,.T.);
#374=ORIENTED_EDGE('',*,*,#373,.F.);
#375=ORIENTED_EDGE('',*,*,#359,.T.);
#376=CARTESIAN_POINT('',(-4.,4.,-6.92820323));
#377=DIRECTION('',(1.,0.,-0.));
#378=VECTOR('',#377,4.);
#379=LINE('',#376,#378);
#380=EDGE_CURVE('',#72,#348,#379,.T.);
#381=ORIENTED_EDGE('',*,*,#380,.F.);
#382=ORIENTED_EDGE('',*,*,#77,.F.);
#383=EDGE_LOOP('',(#374,#375,#381,#382));
#384=FACE_BOUND('',#383,.T.);
#385=ADVANCED_FACE('',(#384),#368,.F.);
#386=CARTESIAN_POINT('',(10.,7.5,-8.948929172));
#387=DIRECTION('',(0.,-0.5,-0.866025404));
#388=DIRECTION('',(0.,0.866025404,-0.5));
#389=AXIS2_PLACEMENT_3D('',#386,#387,#388);
#390=PLANE('',#389);
#391=ORIENTED_EDGE('',*,*,#85,.T.);
#392=ORIENTED_EDGE('',*,*,#380,.T.);
#393=ORIENTED_EDGE('',*,*,#353,.T.);
#394=ORIENTED_EDGE('',*,*,#322,.T.);
#395=ORIENTED_EDGE('',*,*,#291,.T.);
#396=ORIENTED_EDGE('',*,*,#260,.T.);
#397=ORIENTED_EDGE('',*,*,#209,.T.);
#398=ORIENTED_EDGE('',*,*,#178,.T.);
#399=ORIENTED_EDGE('',*,*,#147,.T.);
#400=ORIENTED_EDGE('',*,*,#116,.T.);
#401=EDGE_LOOP('',(#391,#392,#393,#394,#395,#396,#397,#398,#399,#400));
#402=FACE_BOUND('',#401,.T.);
#403=ADVANCED_FACE('',(#402),#390,.T.);
#404=CARTESIAN_POINT('',(10.,-7.5,8.948929172));
#405=DIRECTION('',(0.,0.5,0.866025404));
#406=DIRECTION('',(0.,-0.866025404,0.5));
#407=AXIS2_PLACEMENT_3D('',#404,#405,#406);
#408=PLANE('',#407);
#409=ORIENTED_EDGE('',*,*,#69,.T.);
#410=ORIENTED_EDGE('',*,*,#107,.T.);
#411=ORIENTED_EDGE('',*,*,#138,.T.);
#412=ORIENTED_EDGE('',*,*,#169,.T.);
#413=ORIENTED_EDGE('',*,*,#200,.T.);
#414=ORIENTED_EDGE('',*,*,#251,.T.);
#415=ORIENTED_EDGE('',*,*,#282,.T.);
#416=ORIENTED_EDGE('',*,*,#313,.T.);
#417=ORIENTED_EDGE('',*,*,#344,.T.);
#418=ORIENTED_EDGE('',*,*,#373,.T.);
#419=EDGE_LOOP('',(#409,#410,#411,#412,#413,#414,#415,#416,#417,#418));
#420=FACE_BOUND('',#419,.T.);
#421=ADVANCED_FACE('',(#420),#408,.T.);
#422=CARTESIAN_POINT('',(-5.,0.,-0.));
#423=DIRECTION('',(-1.,0.,-0.));
#424=DIRECTION('',(-0.,0.,1.));
#425=AXIS2_PLACEMENT_3D('',#422,#423,#424);
#426=CONICAL_SURFACE('',#425,4.,45.);
#427=CARTESIAN_POINT('',(-3.4585,0.,-2.4585));
#428=VERTEX_POINT('',#427);
#429=CARTESIAN_POINT('',(-4.,0.,-3.));
#430=DIRECTION('',(0.707106781,-0.,0.707106781));
#431=VECTOR('',#430,0.765796644);
#432=LINE('',#429,#431);
#433=EDGE_CURVE('',#44,#428,#432,.T.);
#434=ORIENTED_EDGE('',*,*,#433,.F.);
#435=ORIENTED_EDGE('',*,*,#50,.T.);
#436=CARTESIAN_POINT('',(-3.4585,0.,2.4585));
#437=VERTEX_POINT('',#436);
#438=CARTESIAN_POINT('',(-4.,0.,3.));
#439=DIRECTION('',(0.707106781,0.,-0.707106781));
#440=VECTOR('',#439,0.765796644);
#441=LINE('',#438,#440);
#442=EDGE_CURVE('',#33,#437,#441,.T.);
#443=ORIENTED_EDGE('',*,*,#442,.T.);
#444=CARTESIAN_POINT('',(-3.4585,0.,-0.));
#445=DIRECTION('',(1.,0.,0.));
#446=DIRECTION('',(0.,0.,-1.));
#447=AXIS2_PLACEMENT_3D('',#444,#445,#446);
#448=CIRCLE('',#447,2.4585);
#449=EDGE_CURVE('',#437,#428,#448,.T.);
#450=ORIENTED_EDGE('',*,*,#449,.T.);
#451=EDGE_LOOP('',(#434,#435,#443,#450));
#452=FACE_BOUND('',#451,.T.);
#453=ADVANCED_FACE('',(#452),#426,.F.);
#454=CARTESIAN_POINT('',(5.4585,0.,0.));
#455=DIRECTION('',(1.,0.,0.));
#456=DIRECTION('',(0.,0.,-1.));
#457=AXIS2_PLACEMENT_3D('',#454,#455,#456);
#458=CONICAL_SURFACE('',#457,2.4585,45.);
#459=CARTESIAN_POINT('',(5.4585,0.,2.4585));
#460=VERTEX_POINT('',#459);
#461=CARTESIAN_POINT('',(6.,0.,3.));
#462=DIRECTION('',(-0.707106781,-0.,-0.707106781));
#463=VECTOR('',#462,0.765796644);
#464=LINE('',#461,#463);
#465=EDGE_CURVE('',#228,#460,#464,.T.);
#466=ORIENTED_EDGE('',*,*,#465,.F.);
#467=ORIENTED_EDGE('',*,*,#241,.T.);
#468=CARTESIAN_POINT('',(5.4585,-0.,-2.4585));
#469=VERTEX_POINT('',#468);
#470=CARTESIAN_POINT('',(6.,0.,-3.));
#471=DIRECTION('',(-0.707106781,-0.,0.707106781));
#472=VECTOR('',#471,0.765796644);
#473=LINE('',#470,#472);
#474=EDGE_CURVE('',#226,#469,#473,.T.);
#475=ORIENTED_EDGE('',*,*,#474,.T.);
#476=CARTESIAN_POINT('',(5.4585,0.,0.));
#477=DIRECTION('',(1.,0.,0.));
#478=DIRECTION('',(0.,0.,-1.));
#479=AXIS2_PLACEMENT_3D('',#476,#477,#478);
#480=CIRCLE('',#479,2.4585);
#481=EDGE_CURVE('',#460,#469,#480,.T.);
#482=ORIENTED_EDGE('',*,*,#481,.F.);
#483=EDGE_LOOP('',(#466,#467,#475,#482));
#484=FACE_BOUND('',#483,.T.);
#485=ADVANCED_FACE('',(#484),#458,.F.);
#486=CARTESIAN_POINT('',(51.,0.,0.));
#487=DIRECTION('',(1.,0.,0.));
#488=DIRECTION('',(0.,0.,-1.));
#489=AXIS2_PLACEMENT_3D('',#486,#487,#488);
#490=CYLINDRICAL_SURFACE('',#489,2.4585);
#491=CARTESIAN_POINT('',(5.4585,0.,2.4585));
#492=DIRECTION('',(-1.,-0.,-0.));
#493=VECTOR('',#492,8.917);
#494=LINE('',#491,#493);
#495=EDGE_CURVE('',#460,#437,#494,.T.);
#496=ORIENTED_EDGE('',*,*,#495,.F.);
#497=ORIENTED_EDGE('',*,*,#481,.T.);
#498=CARTESIAN_POINT('',(5.4585,0.,-2.4585));
#499=DIRECTION('',(-1.,0.,-0.));
#500=VECTOR('',#499,8.917);
#501=LINE('',#498,#500);
#502=EDGE_CURVE('',#469,#428,#501,.T.);
#503=ORIENTED_EDGE('',*,*,#502,.T.);
#504=ORIENTED_EDGE('',*,*,#449,.F.);
#505=EDGE_LOOP('',(#496,#497,#503,#504));
#506=FACE_BOUND('',#505,.T.);
#507=ADVANCED_FACE('',(#506),#490,.F.);
#508=CARTESIAN_POINT('',(-5.,0.,-0.));
#509=DIRECTION('',(-1.,0.,-0.));
#510=DIRECTION('',(-0.,0.,1.));
#511=AXIS2_PLACEMENT_3D('',#508,#509,#510);
#512=CONICAL_SURFACE('',#511,4.,45.);
#513=ORIENTED_EDGE('',*,*,#433,.T.);
#514=CARTESIAN_POINT('',(-3.4585,0.,-0.));
#515=DIRECTION('',(1.,0.,0.));
#516=DIRECTION('',(0.,0.,-1.));
#517=AXIS2_PLACEMENT_3D('',#514,#515,#516);
#518=CIRCLE('',#517,2.4585);
#519=EDGE_CURVE('',#428,#437,#518,.T.);
#520=ORIENTED_EDGE('',*,*,#519,.T.);
#521=ORIENTED_EDGE('',*,*,#442,.F.);
#522=ORIENTED_EDGE('',*,*,#41,.T.);
#523=ORIENTED_EDGE('',*,*,#57,.T.);
#524=EDGE_LOOP('',(#513,#520,#521,#522,#523));
#525=FACE_BOUND('',#524,.T.);
#526=ADVANCED_FACE('',(#525),#512,.F.);
#527=CARTESIAN_POINT('',(5.4585,0.,0.));
#528=DIRECTION('',(1.,0.,0.));
#529=DIRECTION('',(0.,0.,-1.));
#530=AXIS2_PLACEMENT_3D('',#527,#528,#529);
#531=CONICAL_SURFACE('',#530,2.4585,45.);
#532=ORIENTED_EDGE('',*,*,#465,.T.);
#533=CARTESIAN_POINT('',(5.4585,0.,0.));
#534=DIRECTION('',(1.,0.,0.));
#535=DIRECTION('',(0.,0.,-1.));
#536=AXIS2_PLACEMENT_3D('',#533,#534,#535);
#537=CIRCLE('',#536,2.4585);
#538=EDGE_CURVE('',#469,#460,#537,.T.);
#539=ORIENTED_EDGE('',*,*,#538,.F.);
#540=ORIENTED_EDGE('',*,*,#474,.F.);
#541=ORIENTED_EDGE('',*,*,#234,.T.);
#542=EDGE_LOOP('',(#532,#539,#540,#541));
#543=FACE_BOUND('',#542,.T.);
#544=ADVANCED_FACE('',(#543),#531,.F.);
#545=CARTESIAN_POINT('',(51.,0.,0.));
#546=DIRECTION('',(1.,0.,0.));
#547=DIRECTION('',(0.,0.,-1.));
#548=AXIS2_PLACEMENT_3D('',#545,#546,#547);
#549=CYLINDRICAL_SURFACE('',#548,2.4585);
#550=ORIENTED_EDGE('',*,*,#495,.T.);
#551=ORIENTED_EDGE('',*,*,#519,.F.);
#552=ORIENTED_EDGE('',*,*,#502,.F.);
#553=ORIENTED_EDGE('',*,*,#538,.T.);
#554=EDGE_LOOP('',(#550,#551,#552,#553));
#555=FACE_BOUND('',#554,.T.);
#556=ADVANCED_FACE('',(#555),#549,.F.);
#557=CLOSED_SHELL('',(#95,#126,#157,#188,#219,#270,#301,#332,#363,#385,#403,#421,#453,#485,#507,#526,#544,#556));
#558=MANIFOLD_SOLID_BREP('Rhombus T-Nut GN 508.1-8-M6',#557);
#559=COLOUR_RGB('',0.247058824,0.247058824,0.247058824);
#560=FILL_AREA_STYLE_COLOUR('',#559);
#561=FILL_AREA_STYLE('',(#560));
#562=SURFACE_STYLE_FILL_AREA(#561);
#563=SURFACE_SIDE_STYLE('',(#562));
#564=SURFACE_STYLE_USAGE(.BOTH.,#563);
#565=PRESENTATION_STYLE_ASSIGNMENT((#564));
#26=STYLED_ITEM('',(#565),#558);
#566=INTEGER_REPRESENTATION_ITEM('ATTRIB_BOUNDING_BOX_ALGORITHM',3);
#567=ID_ATTRIBUTE('SA #568',#568);
#568=SHAPE_ASPECT('properties','',#23,.F.);
#569=GEOMETRIC_ITEM_SPECIFIC_USAGE('','properties',#568,#17,#558);
#570=PROPERTY_DEFINITION('ATTRIB_BOUNDING_BOX_ALGORITHM','',#568);
#571=REPRESENTATION('',(#566),#10);
#572=PROPERTY_DEFINITION_REPRESENTATION(#570,#571);
#573=GENERAL_PROPERTY('','ATTRIB_BOUNDING_BOX_ALGORITHM','');
#574=GENERAL_PROPERTY_ASSOCIATION('','',#573,#570);
#16=SHAPE_REPRESENTATION('6266 M6 T-nut Rhombus DIN508.1 for T-slot=8mm wide',(#15),#10);
#17=ADVANCED_BREP_SHAPE_REPRESENTATION('6266 M6 T-nut Rhombus DIN508.1 for T-slot=8mm wide',(#558),#10);
#582=SHAPE_REPRESENTATION_RELATIONSHIP('','',#16,#17);
#583=CARTESIAN_POINT('',(0.,0.,0.));
#584=DIRECTION('',(0.,0.,1.));
#585=DIRECTION('',(1.,0.,0.));
#586=AXIS2_PLACEMENT_3D('',#583,#584,#585);
#588=MAPPED_ITEM('',#587,#586);
#587=REPRESENTATION_MAP(#586,#16);
#589=APPLICATION_CONTEXT('Managed model based 3d engineering');
#590=APPLICATION_PROTOCOL_DEFINITION('international standard','ap242_managed_model_based_3d_engineering',2013,#589);
#591=PRODUCT_CONTEXT('',#589,'mechanical');
#592=PRODUCT_DEFINITION_CONTEXT('part definition',#589,'design');
#24=PRODUCT('6266 M6 T-nut Rhombus DIN508.1 for T-slot=8mm wide','6266 M6 T-nut Rhombus DIN508.1 for T-slot=8mm wide','',(#591));
#593=PRODUCT_RELATED_PRODUCT_CATEGORY('part','',(#24));
#594=PRODUCT_DEFINITION_FORMATION_WITH_SPECIFIED_SOURCE('','',#24,.NOT_KNOWN.);
#25=PRODUCT_DEFINITION('design','',#594,#592);
#23=PRODUCT_DEFINITION_SHAPE('','',#25);
#595=SHAPE_DEFINITION_REPRESENTATION(#23,#16);
#11=DRAUGHTING_MODEL('',(#588),#10);
#1=MECHANICAL_DESIGN_GEOMETRIC_PRESENTATION_REPRESENTATION('',(#26),#10);
ENDSEC;
END-ISO-10303-21;
