ISO-10303-21;
HEADER;
/* Generated by software containing ST-Developer
 * from STEP Tools, Inc. (www.steptools.com) 
 */

FILE_DESCRIPTION(
/* description */ ('Alibre Inc.'),
/* implementation_level */ '2;1');

FILE_NAME(
/* name */ 'export-B3191AA3-A91F-453E-AA5E-D5D9CE65DE79',
/* time_stamp */ '2023-06-05T14:44:03+02:00',
/* author */ (''),
/* organization */ (''),
/* preprocessor_version */ 'ST-DEVELOPER v17',
/* originating_system */ 'Alibre',
/* authorisation */ '');

FILE_SCHEMA (('AUTOMOTIVE_DESIGN'));
ENDSEC;

DATA;
#10=CONTEXT_DEPENDENT_SHAPE_REPRESENTATION(#16,#33);
#11=CONTEXT_DEPENDENT_SHAPE_REPRESENTATION(#17,#34);
#12=NEXT_ASSEMBLY_USAGE_OCCURRENCE('NAUO_ID9','NAUO_NAME9',$,#36,#35,$);
#13=NEXT_ASSEMBLY_USAGE_OCCURRENCE('NAUO_ID19','NAUO_NAME19',$,#36,#35,
$);
#14=ITEM_DEFINED_TRANSFORMATION('ITD_NAME0',$,#299,#298);
#15=ITEM_DEFINED_TRANSFORMATION('ITD_NAME10',$,#301,#300);
#16=(
REPRESENTATION_RELATIONSHIP('6315 Aluminium Vice Jaw Set FOR PS-150-AL',
$,#47,#48)
REPRESENTATION_RELATIONSHIP_WITH_TRANSFORMATION(#14)
SHAPE_REPRESENTATION_RELATIONSHIP()
);
#17=(
REPRESENTATION_RELATIONSHIP('6315 Aluminium Vice Jaw Set FOR PS-150-AL',
$,#47,#48)
REPRESENTATION_RELATIONSHIP_WITH_TRANSFORMATION(#15)
SHAPE_REPRESENTATION_RELATIONSHIP()
);
#18=STYLED_ITEM('NAME_0',(#26),#431);
#19=MECHANICAL_DESIGN_GEOMETRIC_PRESENTATION_REPRESENTATION('NAME_0',(#18),
#58);
#20=COLOUR_RGB('',0.882352941176471,0.882352941176471,0.882352941176471);
#21=FILL_AREA_STYLE_COLOUR('NAME_0',#20);
#22=FILL_AREA_STYLE('NAME_0',(#21));
#23=SURFACE_STYLE_FILL_AREA(#22);
#24=SURFACE_SIDE_STYLE('NAME_0',(#23));
#25=SURFACE_STYLE_USAGE(.POSITIVE.,#24);
#26=PRESENTATION_STYLE_ASSIGNMENT((#25));
#27=PRODUCT_DEFINITION_CONTEXT('part definition',#42,'design');
#28=PRODUCT_DEFINITION_CONTEXT('part definition',#42,'design');
#29=SHAPE_DEFINITION_REPRESENTATION(#31,#47);
#30=SHAPE_DEFINITION_REPRESENTATION(#32,#48);
#31=PRODUCT_DEFINITION_SHAPE('PRODUCT_VERSION_ID',
'PRODUCT_VERSION_DESCR',#35);
#32=PRODUCT_DEFINITION_SHAPE('PRODUCT_VERSION_ID',
'PRODUCT_VERSION_DESCR',#36);
#33=PRODUCT_DEFINITION_SHAPE('NAME_10',$,#12);
#34=PRODUCT_DEFINITION_SHAPE('NAME_20',$,#13);
#35=PRODUCT_DEFINITION('6315 Aluminium Vice Jaw Set FOR PS-150-AL',
'PRODUCT_VERSION_DESCR',#37,#27);
#36=PRODUCT_DEFINITION('PRODUCT_VERSION_ID','PRODUCT_VERSION_DESCR',#38,
#28);
#37=PRODUCT_DEFINITION_FORMATION_WITH_SPECIFIED_SOURCE(
'PRODUCT_VERSION_ID','PRODUCT_VERSION_DESCR',#45,.MADE.);
#38=PRODUCT_DEFINITION_FORMATION_WITH_SPECIFIED_SOURCE(
'PRODUCT_VERSION_ID','PRODUCT_VERSION_DESCR',#46,.MADE.);
#39=PRODUCT_RELATED_PRODUCT_CATEGORY('part','part',(#45));
#40=PRODUCT_RELATED_PRODUCT_CATEGORY('part','part',(#46));
#41=APPLICATION_PROTOCOL_DEFINITION('Draft International Standard',
'automotive_design',1994,#42);
#42=APPLICATION_CONTEXT('automotive_Design');
#43=PRODUCT_CONTEXT('3D Mechanical Parts',#42,'mechanical');
#44=PRODUCT_CONTEXT('3D Mechanical Parts',#42,'mechanical');
#45=PRODUCT('','6315 Aluminium Vice Jaw Set FOR PS-150-AL','',(#43));
#46=PRODUCT('','6315 Aluminium Vice Jaw Set FOR PS-150-AL','',(#44));
#47=SHAPE_REPRESENTATION('6315 Aluminium Vice Jaw Set FOR PS-150-AL',(#299,
#301),#58);
#48=SHAPE_REPRESENTATION('NAME_0',(#298,#300),#59);
#49=SHAPE_REPRESENTATION_RELATIONSHIP('NAME_0',$,#47,#432);
#50=(
LENGTH_UNIT()
NAMED_UNIT(*)
SI_UNIT(.MILLI.,.METRE.)
);
#51=(
LENGTH_UNIT()
NAMED_UNIT(*)
SI_UNIT(.MILLI.,.METRE.)
);
#52=(
NAMED_UNIT(*)
PLANE_ANGLE_UNIT()
SI_UNIT($,.RADIAN.)
);
#53=(
NAMED_UNIT(*)
PLANE_ANGLE_UNIT()
SI_UNIT($,.RADIAN.)
);
#54=(
NAMED_UNIT(*)
SI_UNIT($,.STERADIAN.)
SOLID_ANGLE_UNIT()
);
#55=(
NAMED_UNIT(*)
SI_UNIT($,.STERADIAN.)
SOLID_ANGLE_UNIT()
);
#56=UNCERTAINTY_MEASURE_WITH_UNIT(LENGTH_MEASURE(1.E-6),#50,
'DISTANCE_ACCURACY_VALUE',
'Maximum model space distance between geometric entities at asserted c
onnectivities');
#57=UNCERTAINTY_MEASURE_WITH_UNIT(LENGTH_MEASURE(1.E-6),#51,
'DISTANCE_ACCURACY_VALUE',
'Maximum model space distance between geometric entities at asserted c
onnectivities');
#58=(
GEOMETRIC_REPRESENTATION_CONTEXT(3)
GLOBAL_UNCERTAINTY_ASSIGNED_CONTEXT((#56))
GLOBAL_UNIT_ASSIGNED_CONTEXT((#54,#52,#50))
REPRESENTATION_CONTEXT('ID1','3D')
);
#59=(
GEOMETRIC_REPRESENTATION_CONTEXT(3)
GLOBAL_UNCERTAINTY_ASSIGNED_CONTEXT((#57))
GLOBAL_UNIT_ASSIGNED_CONTEXT((#55,#53,#51))
REPRESENTATION_CONTEXT('ID1','3D')
);
#60=VECTOR('',#395,1.);
#61=VECTOR('',#396,1.);
#62=VECTOR('',#397,1.);
#63=VECTOR('',#398,1.);
#64=VECTOR('',#400,1.);
#65=VECTOR('',#401,1.);
#66=VECTOR('',#402,1.);
#67=VECTOR('',#404,1.);
#68=VECTOR('',#405,1.);
#69=VECTOR('',#406,1.);
#70=VECTOR('',#408,1.);
#71=VECTOR('',#409,1.);
#72=VECTOR('',#410,1.);
#73=VECTOR('',#412,1.);
#74=VECTOR('',#413,1.);
#75=VECTOR('',#414,1.);
#76=VECTOR('',#416,1.);
#77=VECTOR('',#417,1.);
#78=LINE('',#325,#60);
#79=LINE('',#328,#61);
#80=LINE('',#330,#62);
#81=LINE('',#332,#63);
#82=LINE('',#334,#64);
#83=LINE('',#336,#65);
#84=LINE('',#338,#66);
#85=LINE('',#340,#67);
#86=LINE('',#342,#68);
#87=LINE('',#344,#69);
#88=LINE('',#346,#70);
#89=LINE('',#348,#71);
#90=LINE('',#350,#72);
#91=LINE('',#352,#73);
#92=LINE('',#354,#74);
#93=LINE('',#356,#75);
#94=LINE('',#358,#76);
#95=LINE('',#359,#77);
#96=PLANE('',#290);
#97=PLANE('',#291);
#98=PLANE('',#292);
#99=PLANE('',#293);
#100=PLANE('',#294);
#101=PLANE('',#295);
#102=PLANE('',#296);
#103=PLANE('',#297);
#104=CYLINDRICAL_SURFACE('',#279,6.75);
#105=CYLINDRICAL_SURFACE('',#281,3.1);
#106=CYLINDRICAL_SURFACE('',#286,6.75);
#107=CYLINDRICAL_SURFACE('',#288,3.1);
#108=VERTEX_POINT('',#304);
#109=VERTEX_POINT('',#306);
#110=VERTEX_POINT('',#309);
#111=VERTEX_POINT('',#312);
#112=VERTEX_POINT('',#315);
#113=VERTEX_POINT('',#317);
#114=VERTEX_POINT('',#320);
#115=VERTEX_POINT('',#323);
#116=VERTEX_POINT('',#326);
#117=VERTEX_POINT('',#327);
#118=VERTEX_POINT('',#329);
#119=VERTEX_POINT('',#331);
#120=VERTEX_POINT('',#335);
#121=VERTEX_POINT('',#337);
#122=VERTEX_POINT('',#341);
#123=VERTEX_POINT('',#343);
#124=VERTEX_POINT('',#347);
#125=VERTEX_POINT('',#349);
#126=VERTEX_POINT('',#353);
#127=VERTEX_POINT('',#355);
#128=CIRCLE('',#277,3.1);
#129=CIRCLE('',#278,6.75);
#130=CIRCLE('',#280,6.75);
#131=CIRCLE('',#282,3.1);
#132=CIRCLE('',#284,3.1);
#133=CIRCLE('',#285,6.75);
#134=CIRCLE('',#287,6.75);
#135=CIRCLE('',#289,3.1);
#136=EDGE_CURVE('',#108,#108,#128,.T.);
#137=EDGE_CURVE('',#109,#109,#129,.T.);
#138=EDGE_CURVE('',#110,#110,#130,.T.);
#139=EDGE_CURVE('',#111,#111,#131,.T.);
#140=EDGE_CURVE('',#112,#112,#132,.T.);
#141=EDGE_CURVE('',#113,#113,#133,.T.);
#142=EDGE_CURVE('',#114,#114,#134,.T.);
#143=EDGE_CURVE('',#115,#115,#135,.T.);
#144=EDGE_CURVE('',#116,#117,#78,.T.);
#145=EDGE_CURVE('',#118,#117,#79,.T.);
#146=EDGE_CURVE('',#118,#119,#80,.T.);
#147=EDGE_CURVE('',#119,#116,#81,.T.);
#148=EDGE_CURVE('',#117,#120,#82,.T.);
#149=EDGE_CURVE('',#121,#120,#83,.T.);
#150=EDGE_CURVE('',#121,#118,#84,.T.);
#151=EDGE_CURVE('',#120,#122,#85,.T.);
#152=EDGE_CURVE('',#123,#122,#86,.T.);
#153=EDGE_CURVE('',#123,#121,#87,.T.);
#154=EDGE_CURVE('',#122,#124,#88,.T.);
#155=EDGE_CURVE('',#125,#124,#89,.T.);
#156=EDGE_CURVE('',#125,#123,#90,.T.);
#157=EDGE_CURVE('',#124,#126,#91,.T.);
#158=EDGE_CURVE('',#127,#126,#92,.T.);
#159=EDGE_CURVE('',#127,#125,#93,.T.);
#160=EDGE_CURVE('',#126,#116,#94,.T.);
#161=EDGE_CURVE('',#119,#127,#95,.T.);
#162=ORIENTED_EDGE('',*,*,#136,.F.);
#163=ORIENTED_EDGE('',*,*,#137,.T.);
#164=ORIENTED_EDGE('',*,*,#137,.F.);
#165=ORIENTED_EDGE('',*,*,#138,.F.);
#166=ORIENTED_EDGE('',*,*,#136,.T.);
#167=ORIENTED_EDGE('',*,*,#139,.F.);
#168=ORIENTED_EDGE('',*,*,#140,.F.);
#169=ORIENTED_EDGE('',*,*,#141,.T.);
#170=ORIENTED_EDGE('',*,*,#141,.F.);
#171=ORIENTED_EDGE('',*,*,#142,.F.);
#172=ORIENTED_EDGE('',*,*,#140,.T.);
#173=ORIENTED_EDGE('',*,*,#143,.F.);
#174=ORIENTED_EDGE('',*,*,#144,.T.);
#175=ORIENTED_EDGE('',*,*,#145,.F.);
#176=ORIENTED_EDGE('',*,*,#146,.T.);
#177=ORIENTED_EDGE('',*,*,#147,.T.);
#178=ORIENTED_EDGE('',*,*,#148,.T.);
#179=ORIENTED_EDGE('',*,*,#149,.F.);
#180=ORIENTED_EDGE('',*,*,#150,.T.);
#181=ORIENTED_EDGE('',*,*,#145,.T.);
#182=ORIENTED_EDGE('',*,*,#151,.T.);
#183=ORIENTED_EDGE('',*,*,#152,.F.);
#184=ORIENTED_EDGE('',*,*,#153,.T.);
#185=ORIENTED_EDGE('',*,*,#149,.T.);
#186=ORIENTED_EDGE('',*,*,#138,.T.);
#187=ORIENTED_EDGE('',*,*,#142,.T.);
#188=ORIENTED_EDGE('',*,*,#154,.T.);
#189=ORIENTED_EDGE('',*,*,#155,.F.);
#190=ORIENTED_EDGE('',*,*,#156,.T.);
#191=ORIENTED_EDGE('',*,*,#152,.T.);
#192=ORIENTED_EDGE('',*,*,#157,.T.);
#193=ORIENTED_EDGE('',*,*,#158,.F.);
#194=ORIENTED_EDGE('',*,*,#159,.T.);
#195=ORIENTED_EDGE('',*,*,#155,.T.);
#196=ORIENTED_EDGE('',*,*,#139,.T.);
#197=ORIENTED_EDGE('',*,*,#143,.T.);
#198=ORIENTED_EDGE('',*,*,#160,.T.);
#199=ORIENTED_EDGE('',*,*,#147,.F.);
#200=ORIENTED_EDGE('',*,*,#161,.T.);
#201=ORIENTED_EDGE('',*,*,#158,.T.);
#202=ORIENTED_EDGE('',*,*,#144,.F.);
#203=ORIENTED_EDGE('',*,*,#160,.F.);
#204=ORIENTED_EDGE('',*,*,#157,.F.);
#205=ORIENTED_EDGE('',*,*,#154,.F.);
#206=ORIENTED_EDGE('',*,*,#151,.F.);
#207=ORIENTED_EDGE('',*,*,#148,.F.);
#208=ORIENTED_EDGE('',*,*,#161,.F.);
#209=ORIENTED_EDGE('',*,*,#146,.F.);
#210=ORIENTED_EDGE('',*,*,#150,.F.);
#211=ORIENTED_EDGE('',*,*,#153,.F.);
#212=ORIENTED_EDGE('',*,*,#156,.F.);
#213=ORIENTED_EDGE('',*,*,#159,.F.);
#214=EDGE_LOOP('',(#162));
#215=EDGE_LOOP('',(#163));
#216=EDGE_LOOP('',(#164));
#217=EDGE_LOOP('',(#165));
#218=EDGE_LOOP('',(#166));
#219=EDGE_LOOP('',(#167));
#220=EDGE_LOOP('',(#168));
#221=EDGE_LOOP('',(#169));
#222=EDGE_LOOP('',(#170));
#223=EDGE_LOOP('',(#171));
#224=EDGE_LOOP('',(#172));
#225=EDGE_LOOP('',(#173));
#226=EDGE_LOOP('',(#174,#175,#176,#177));
#227=EDGE_LOOP('',(#178,#179,#180,#181));
#228=EDGE_LOOP('',(#182,#183,#184,#185));
#229=EDGE_LOOP('',(#186));
#230=EDGE_LOOP('',(#187));
#231=EDGE_LOOP('',(#188,#189,#190,#191));
#232=EDGE_LOOP('',(#192,#193,#194,#195));
#233=EDGE_LOOP('',(#196));
#234=EDGE_LOOP('',(#197));
#235=EDGE_LOOP('',(#198,#199,#200,#201));
#236=EDGE_LOOP('',(#202,#203,#204,#205,#206,#207));
#237=EDGE_LOOP('',(#208,#209,#210,#211,#212,#213));
#238=FACE_BOUND('',#214,.T.);
#239=FACE_BOUND('',#215,.T.);
#240=FACE_BOUND('',#216,.T.);
#241=FACE_BOUND('',#217,.T.);
#242=FACE_BOUND('',#218,.T.);
#243=FACE_BOUND('',#219,.T.);
#244=FACE_BOUND('',#220,.T.);
#245=FACE_BOUND('',#221,.T.);
#246=FACE_BOUND('',#222,.T.);
#247=FACE_BOUND('',#223,.T.);
#248=FACE_BOUND('',#224,.T.);
#249=FACE_BOUND('',#225,.T.);
#250=FACE_BOUND('',#226,.T.);
#251=FACE_BOUND('',#227,.T.);
#252=FACE_BOUND('',#228,.T.);
#253=FACE_BOUND('',#229,.T.);
#254=FACE_BOUND('',#230,.T.);
#255=FACE_BOUND('',#231,.T.);
#256=FACE_BOUND('',#232,.T.);
#257=FACE_BOUND('',#233,.T.);
#258=FACE_BOUND('',#234,.T.);
#259=FACE_BOUND('',#235,.T.);
#260=FACE_BOUND('',#236,.T.);
#261=FACE_BOUND('',#237,.T.);
#262=ADVANCED_FACE('',(#238,#239),#428,.F.);
#263=ADVANCED_FACE('',(#240,#241),#104,.F.);
#264=ADVANCED_FACE('',(#242,#243),#105,.F.);
#265=ADVANCED_FACE('',(#244,#245),#429,.F.);
#266=ADVANCED_FACE('',(#246,#247),#106,.F.);
#267=ADVANCED_FACE('',(#248,#249),#107,.F.);
#268=ADVANCED_FACE('',(#250),#96,.T.);
#269=ADVANCED_FACE('',(#251),#97,.T.);
#270=ADVANCED_FACE('',(#252),#98,.T.);
#271=ADVANCED_FACE('',(#253,#254,#255),#99,.T.);
#272=ADVANCED_FACE('',(#256),#100,.T.);
#273=ADVANCED_FACE('',(#257,#258,#259),#101,.T.);
#274=ADVANCED_FACE('',(#260),#102,.T.);
#275=ADVANCED_FACE('',(#261),#103,.F.);
#276=AXIS2_PLACEMENT_3D('',#302,#366,#367);
#277=AXIS2_PLACEMENT_3D('',#303,#368,#369);
#278=AXIS2_PLACEMENT_3D('',#305,#370,#371);
#279=AXIS2_PLACEMENT_3D('',#307,#372,#373);
#280=AXIS2_PLACEMENT_3D('',#308,#374,#375);
#281=AXIS2_PLACEMENT_3D('',#310,#376,#377);
#282=AXIS2_PLACEMENT_3D('',#311,#378,#379);
#283=AXIS2_PLACEMENT_3D('',#313,#380,#381);
#284=AXIS2_PLACEMENT_3D('',#314,#382,#383);
#285=AXIS2_PLACEMENT_3D('',#316,#384,#385);
#286=AXIS2_PLACEMENT_3D('',#318,#386,#387);
#287=AXIS2_PLACEMENT_3D('',#319,#388,#389);
#288=AXIS2_PLACEMENT_3D('',#321,#390,#391);
#289=AXIS2_PLACEMENT_3D('',#322,#392,#393);
#290=AXIS2_PLACEMENT_3D('',#324,#394,$);
#291=AXIS2_PLACEMENT_3D('',#333,#399,$);
#292=AXIS2_PLACEMENT_3D('',#339,#403,$);
#293=AXIS2_PLACEMENT_3D('',#345,#407,$);
#294=AXIS2_PLACEMENT_3D('',#351,#411,$);
#295=AXIS2_PLACEMENT_3D('',#357,#415,$);
#296=AXIS2_PLACEMENT_3D('',#360,#418,$);
#297=AXIS2_PLACEMENT_3D('',#361,#419,$);
#298=AXIS2_PLACEMENT_3D('AXIS_PLACEMENT_1',#362,#420,#421);
#299=AXIS2_PLACEMENT_3D('AXIS_PLACEMENT_5',#363,#422,#423);
#300=AXIS2_PLACEMENT_3D('AXIS_PLACEMENT_11',#364,#424,#425);
#301=AXIS2_PLACEMENT_3D('AXIS_PLACEMENT_15',#365,#426,#427);
#302=CARTESIAN_POINT('',(-0.1,20.,-30.));
#303=CARTESIAN_POINT('',(-3.75,20.,-30.));
#304=CARTESIAN_POINT('',(-3.75,20.,-26.9));
#305=CARTESIAN_POINT('',(-0.1,20.,-30.));
#306=CARTESIAN_POINT('',(-0.1,20.,-23.25));
#307=CARTESIAN_POINT('',(0.,20.,-30.));
#308=CARTESIAN_POINT('',(0.,20.,-30.));
#309=CARTESIAN_POINT('',(0.,20.,-23.25));
#310=CARTESIAN_POINT('',(0.,20.,-30.));
#311=CARTESIAN_POINT('',(-10.,20.,-30.));
#312=CARTESIAN_POINT('',(-10.,20.,-33.1));
#313=CARTESIAN_POINT('',(-0.1,20.,30.));
#314=CARTESIAN_POINT('',(-3.75,20.,30.));
#315=CARTESIAN_POINT('',(-3.75,20.,33.1));
#316=CARTESIAN_POINT('',(-0.1,20.,30.));
#317=CARTESIAN_POINT('',(-0.1,20.,36.75));
#318=CARTESIAN_POINT('',(0.,20.,30.));
#319=CARTESIAN_POINT('',(0.,20.,30.));
#320=CARTESIAN_POINT('',(0.,20.,36.75));
#321=CARTESIAN_POINT('',(0.,20.,30.));
#322=CARTESIAN_POINT('',(-10.,20.,30.));
#323=CARTESIAN_POINT('',(-10.,20.,26.9));
#324=CARTESIAN_POINT('',(-6.50000000000001,40.,-75.));
#325=CARTESIAN_POINT('',(-3.,40.,75.));
#326=CARTESIAN_POINT('',(-10.,40.,75.));
#327=CARTESIAN_POINT('',(-3.,40.,75.));
#328=CARTESIAN_POINT('',(-3.,40.,-75.));
#329=CARTESIAN_POINT('',(-3.,40.,-75.));
#330=CARTESIAN_POINT('',(-3.,40.,-75.));
#331=CARTESIAN_POINT('',(-10.,40.,-75.));
#332=CARTESIAN_POINT('',(-10.,40.,-75.));
#333=CARTESIAN_POINT('',(-3.,35.,-75.));
#334=CARTESIAN_POINT('',(-3.,30.,75.));
#335=CARTESIAN_POINT('',(-3.,30.,75.));
#336=CARTESIAN_POINT('',(-3.,30.,-75.));
#337=CARTESIAN_POINT('',(-3.,30.,-75.));
#338=CARTESIAN_POINT('',(-3.,30.,-75.));
#339=CARTESIAN_POINT('',(-1.5,30.,-75.));
#340=CARTESIAN_POINT('',(-4.8919202022546E-15,30.,75.));
#341=CARTESIAN_POINT('',(0.,30.,75.));
#342=CARTESIAN_POINT('',(0.,30.,-75.));
#343=CARTESIAN_POINT('',(0.,30.,-75.));
#344=CARTESIAN_POINT('',(-4.8919202022546E-15,30.,-75.));
#345=CARTESIAN_POINT('',(0.,15.,-75.));
#346=CARTESIAN_POINT('',(0.,0.,75.));
#347=CARTESIAN_POINT('',(0.,0.,75.));
#348=CARTESIAN_POINT('',(0.,0.,-75.));
#349=CARTESIAN_POINT('',(0.,0.,-75.));
#350=CARTESIAN_POINT('',(0.,0.,-75.));
#351=CARTESIAN_POINT('',(-5.,6.88624402109587E-16,-75.));
#352=CARTESIAN_POINT('',(-10.,1.37724880421917E-15,75.));
#353=CARTESIAN_POINT('',(-10.,0.,75.));
#354=CARTESIAN_POINT('',(-10.,0.,-75.));
#355=CARTESIAN_POINT('',(-10.,0.,-75.));
#356=CARTESIAN_POINT('',(-10.,1.37724880421917E-15,-75.));
#357=CARTESIAN_POINT('',(-10.,20.,-75.));
#358=CARTESIAN_POINT('',(-10.,40.,75.));
#359=CARTESIAN_POINT('',(-10.,40.,-75.));
#360=CARTESIAN_POINT('',(-5.3,19.7,75.));
#361=CARTESIAN_POINT('',(-5.3,19.7,-75.));
#362=CARTESIAN_POINT('CARTESIAN_POINT4',(-20.,0.,0.));
#363=CARTESIAN_POINT('CARTESIAN_POINT8',(0.,0.,0.));
#364=CARTESIAN_POINT('CARTESIAN_POINT14',(20.,0.,0.));
#365=CARTESIAN_POINT('CARTESIAN_POINT18',(0.,0.,0.));
#366=DIRECTION('',(1.,0.,0.));
#367=DIRECTION('',(0.,0.,6.75));
#368=DIRECTION('',(1.,0.,0.));
#369=DIRECTION('',(0.,0.,3.1));
#370=DIRECTION('',(1.,0.,0.));
#371=DIRECTION('',(0.,0.,6.75));
#372=DIRECTION('',(-1.,0.,0.));
#373=DIRECTION('',(0.,0.,6.75));
#374=DIRECTION('',(-1.,0.,0.));
#375=DIRECTION('',(0.,0.,6.75));
#376=DIRECTION('',(-1.,0.,0.));
#377=DIRECTION('',(0.,0.,3.1));
#378=DIRECTION('',(1.,0.,0.));
#379=DIRECTION('',(0.,0.,3.1));
#380=DIRECTION('',(1.,0.,0.));
#381=DIRECTION('',(0.,0.,6.75));
#382=DIRECTION('',(1.,0.,0.));
#383=DIRECTION('',(0.,0.,3.1));
#384=DIRECTION('',(1.,0.,0.));
#385=DIRECTION('',(0.,0.,6.75));
#386=DIRECTION('',(-1.,0.,0.));
#387=DIRECTION('',(0.,0.,6.75));
#388=DIRECTION('',(-1.,0.,0.));
#389=DIRECTION('',(0.,0.,6.75));
#390=DIRECTION('',(-1.,0.,0.));
#391=DIRECTION('',(0.,0.,3.1));
#392=DIRECTION('',(1.,0.,0.));
#393=DIRECTION('',(0.,0.,3.1));
#394=DIRECTION('',(0.,1.,0.));
#395=DIRECTION('',(1.,0.,0.));
#396=DIRECTION('',(0.,0.,1.));
#397=DIRECTION('',(-1.,0.,0.));
#398=DIRECTION('',(0.,0.,1.));
#399=DIRECTION('',(1.,1.66533453693773E-16,0.));
#400=DIRECTION('',(1.66533453693773E-16,-1.,0.));
#401=DIRECTION('',(0.,0.,1.));
#402=DIRECTION('',(-1.66533453693773E-16,1.,0.));
#403=DIRECTION('',(0.,1.,0.));
#404=DIRECTION('',(1.,0.,0.));
#405=DIRECTION('',(0.,0.,1.));
#406=DIRECTION('',(-1.,0.,0.));
#407=DIRECTION('',(1.,0.,0.));
#408=DIRECTION('',(0.,-1.,0.));
#409=DIRECTION('',(0.,0.,1.));
#410=DIRECTION('',(0.,1.,0.));
#411=DIRECTION('',(-1.37724880421917E-16,-1.,0.));
#412=DIRECTION('',(-1.,1.37724880421917E-16,0.));
#413=DIRECTION('',(0.,0.,1.));
#414=DIRECTION('',(1.,-1.37724880421917E-16,0.));
#415=DIRECTION('',(-1.,0.,0.));
#416=DIRECTION('',(0.,1.,0.));
#417=DIRECTION('',(0.,-1.,0.));
#418=DIRECTION('',(0.,0.,1.));
#419=DIRECTION('',(0.,0.,1.));
#420=DIRECTION('DIRECTION2',(0.,0.,10.));
#421=DIRECTION('DIRECTION3',(10.,0.,0.));
#422=DIRECTION('DIRECTION6',(0.,0.,1.));
#423=DIRECTION('DIRECTION7',(1.,0.,0.));
#424=DIRECTION('DIRECTION12',(0.,0.,-10.));
#425=DIRECTION('DIRECTION13',(-10.,0.,0.));
#426=DIRECTION('DIRECTION16',(0.,0.,1.));
#427=DIRECTION('DIRECTION17',(1.,0.,0.));
#428=CONICAL_SURFACE('',#276,6.75,0.785398163397448);
#429=CONICAL_SURFACE('',#283,6.75,0.785398163397448);
#430=CLOSED_SHELL('',(#262,#263,#264,#265,#266,#267,#268,#269,#270,#271,
#272,#273,#274,#275));
#431=MANIFOLD_SOLID_BREP('',#430);
#432=ADVANCED_BREP_SHAPE_REPRESENTATION(
'6315 Aluminium Vice Jaw Set FOR PS-150-AL',(#431),#58);
ENDSEC;
END-ISO-10303-21;
