ISO-10303-21;
HEADER;

/* File generated by Alibre Version V23 */

FILE_DESCRIPTION(('HOOPS Exchange Step'),'2;1');

FILE_NAME('C:\\Users\\Gebruiker\\AppData\\Local\\Temp\\Alibre Design\\export-EE6598CA-76DC-45C8-A8C5-93973BF5C527.stp',
'2023-06-05T14:44:23+02:00',
('Engineering'),
('Alibre'),
'HOOPS Exchange 2021.0',
'Alibre',
'Unknown authorisation');

FILE_SCHEMA( ('AP242_MANAGED_MODEL_BASED_3D_ENGINEERING_MIM_LF {1 0 10303 442 1 1 4 }') );

ENDSEC;

DATA;
#3=(NAMED_UNIT(*)PLANE_ANGLE_UNIT()SI_UNIT($,.RADIAN.));
#4=PLANE_ANGLE_MEASURE_WITH_UNIT(PLANE_ANGLE_MEASURE(0.0174532925),#3);
#5=(CONVERSION_BASED_UNIT('DEGREE',#4)NAMED_UNIT(#6)PLANE_ANGLE_UNIT());
#6=DIMENSIONAL_EXPONENTS(0.,0.,0.,0.,0.,0.,0.);
#7=(NAMED_UNIT(*)SI_UNIT($,.STERADIAN.)SOLID_ANGLE_UNIT());
#8=(LENGTH_UNIT()NAMED_UNIT(*)SI_UNIT(.MILLI.,.METRE.));
#9=UNCERTAINTY_MEASURE_WITH_UNIT(LENGTH_MEASURE(1.000000E-03),#8,'DISTANCE_ACCURACY_VALUE','Maximum Tolerance applied to model');
#10=(GEOMETRIC_REPRESENTATION_CONTEXT(3)GLOBAL_UNCERTAINTY_ASSIGNED_CONTEXT((#9))GLOBAL_UNIT_ASSIGNED_CONTEXT((#8,#5,#7))REPRESENTATION_CONTEXT('','6315 Aluminium Vice Jaw Set FOR PS-150-AL'));
#12=CARTESIAN_POINT('',(0.,0.,0.));
#13=DIRECTION('',(0.,0.,1.));
#14=DIRECTION('',(1.,0.,0.));
#15=AXIS2_PLACEMENT_3D('',#12,#13,#14);
#26=(NAMED_UNIT(*)PLANE_ANGLE_UNIT()SI_UNIT($,.RADIAN.));
#27=PLANE_ANGLE_MEASURE_WITH_UNIT(PLANE_ANGLE_MEASURE(0.0174532925),#26);
#28=(CONVERSION_BASED_UNIT('DEGREE',#27)NAMED_UNIT(#29)PLANE_ANGLE_UNIT());
#29=DIMENSIONAL_EXPONENTS(0.,0.,0.,0.,0.,0.,0.);
#30=(NAMED_UNIT(*)SI_UNIT($,.STERADIAN.)SOLID_ANGLE_UNIT());
#31=(LENGTH_UNIT()NAMED_UNIT(*)SI_UNIT(.MILLI.,.METRE.));
#32=UNCERTAINTY_MEASURE_WITH_UNIT(LENGTH_MEASURE(1.000000E-06),#31,'DISTANCE_ACCURACY_VALUE','Maximum Tolerance applied to model');
#33=(GEOMETRIC_REPRESENTATION_CONTEXT(3)GLOBAL_UNCERTAINTY_ASSIGNED_CONTEXT((#32))GLOBAL_UNIT_ASSIGNED_CONTEXT((#31,#28,#30))REPRESENTATION_CONTEXT('','6315 Aluminium Vice Jaw Set FOR PS-150-AL'));
#35=CARTESIAN_POINT('',(0.,0.,0.));
#36=DIRECTION('',(0.,0.,1.));
#37=DIRECTION('',(1.,0.,0.));
#38=AXIS2_PLACEMENT_3D('',#35,#36,#37);
#49=CARTESIAN_POINT('',(-20.,0.,0.));
#50=DIRECTION('',(0.,0.,1.));
#51=DIRECTION('',(1.,0.,-0.));
#52=AXIS2_PLACEMENT_3D('',#49,#50,#51);
#53=ITEM_DEFINED_TRANSFORMATION('','',#52,#38);
#54=(REPRESENTATION_RELATIONSHIP('','',#39,#16)REPRESENTATION_RELATIONSHIP_WITH_TRANSFORMATION(#53)SHAPE_REPRESENTATION_RELATIONSHIP());
#55=NEXT_ASSEMBLY_USAGE_OCCURRENCE('6315 Aluminium Vice Jaw Set FOR PS-150-AL_1','6315 Aluminium Vice Jaw Set FOR PS-150-AL','6315 Aluminium Vice Jaw Set FOR PS-150-AL',#25,#48,$);
#56=PRODUCT_DEFINITION_SHAPE('','',#55);
#57=CONTEXT_DEPENDENT_SHAPE_REPRESENTATION(#54,#56);
#59=CARTESIAN_POINT('',(-0.1,20.,-30.));
#60=DIRECTION('',(1.,0.,-0.));
#61=DIRECTION('',(0.,0.,1.));
#62=AXIS2_PLACEMENT_3D('',#59,#60,#61);
#63=CONICAL_SURFACE('',#62,6.75,45.);
#64=CARTESIAN_POINT('',(-3.75,20.,-33.1));
#65=VERTEX_POINT('',#64);
#66=CARTESIAN_POINT('',(-0.1,20.,-36.75));
#67=VERTEX_POINT('',#66);
#68=CARTESIAN_POINT('',(-3.75,20.,-33.1));
#69=DIRECTION('',(0.707106781,-0.,-0.707106781));
#70=VECTOR('',#69,5.161879503);
#71=LINE('',#68,#70);
#72=EDGE_CURVE('',#65,#67,#71,.T.);
#73=ORIENTED_EDGE('',*,*,#72,.F.);
#74=CARTESIAN_POINT('',(-3.75,20.,-26.9));
#75=VERTEX_POINT('',#74);
#76=CARTESIAN_POINT('',(-3.75,20.,-30.));
#77=DIRECTION('',(1.,0.,-0.));
#78=DIRECTION('',(0.,0.,1.));
#79=AXIS2_PLACEMENT_3D('',#76,#77,#78);
#80=CIRCLE('',#79,3.1);
#81=EDGE_CURVE('',#75,#65,#80,.T.);
#82=ORIENTED_EDGE('',*,*,#81,.F.);
#83=CARTESIAN_POINT('',(-3.75,20.,-30.));
#84=DIRECTION('',(1.,0.,-0.));
#85=DIRECTION('',(0.,0.,1.));
#86=AXIS2_PLACEMENT_3D('',#83,#84,#85);
#87=CIRCLE('',#86,3.1);
#88=EDGE_CURVE('',#65,#75,#87,.T.);
#89=ORIENTED_EDGE('',*,*,#88,.F.);
#90=ORIENTED_EDGE('',*,*,#72,.T.);
#91=CARTESIAN_POINT('',(-0.1,20.,-23.25));
#92=VERTEX_POINT('',#91);
#93=CARTESIAN_POINT('',(-0.1,20.,-30.));
#94=DIRECTION('',(1.,0.,-0.));
#95=DIRECTION('',(0.,0.,1.));
#96=AXIS2_PLACEMENT_3D('',#93,#94,#95);
#97=CIRCLE('',#96,6.75);
#98=EDGE_CURVE('',#67,#92,#97,.T.);
#99=ORIENTED_EDGE('',*,*,#98,.T.);
#100=CARTESIAN_POINT('',(-0.1,20.,-30.));
#101=DIRECTION('',(1.,0.,-0.));
#102=DIRECTION('',(0.,0.,1.));
#103=AXIS2_PLACEMENT_3D('',#100,#101,#102);
#104=CIRCLE('',#103,6.75);
#105=EDGE_CURVE('',#92,#67,#104,.T.);
#106=ORIENTED_EDGE('',*,*,#105,.T.);
#107=EDGE_LOOP('',(#73,#82,#89,#90,#99,#106));
#108=FACE_BOUND('',#107,.T.);
#109=ADVANCED_FACE('',(#108),#63,.F.);
#110=CARTESIAN_POINT('',(0.,20.,-30.));
#111=DIRECTION('',(-1.,0.,0.));
#112=DIRECTION('',(0.,0.,1.));
#113=AXIS2_PLACEMENT_3D('',#110,#111,#112);
#114=CYLINDRICAL_SURFACE('',#113,6.75);
#115=CARTESIAN_POINT('',(0.,20.,-36.75));
#116=VERTEX_POINT('',#115);
#117=CARTESIAN_POINT('',(-0.1,20.,-36.75));
#118=DIRECTION('',(1.,-0.,-0.));
#119=VECTOR('',#118,0.1);
#120=LINE('',#117,#119);
#121=EDGE_CURVE('',#67,#116,#120,.T.);
#122=ORIENTED_EDGE('',*,*,#121,.F.);
#123=ORIENTED_EDGE('',*,*,#105,.F.);
#124=ORIENTED_EDGE('',*,*,#98,.F.);
#125=ORIENTED_EDGE('',*,*,#121,.T.);
#126=CARTESIAN_POINT('',(0.,20.,-23.25));
#127=VERTEX_POINT('',#126);
#128=CARTESIAN_POINT('',(0.,20.,-30.));
#129=DIRECTION('',(-1.,0.,0.));
#130=DIRECTION('',(0.,0.,1.));
#131=AXIS2_PLACEMENT_3D('',#128,#129,#130);
#132=CIRCLE('',#131,6.75);
#133=EDGE_CURVE('',#127,#116,#132,.T.);
#134=ORIENTED_EDGE('',*,*,#133,.F.);
#135=CARTESIAN_POINT('',(0.,20.,-30.));
#136=DIRECTION('',(-1.,0.,0.));
#137=DIRECTION('',(0.,0.,1.));
#138=AXIS2_PLACEMENT_3D('',#135,#136,#137);
#139=CIRCLE('',#138,6.75);
#140=EDGE_CURVE('',#116,#127,#139,.T.);
#141=ORIENTED_EDGE('',*,*,#140,.F.);
#142=EDGE_LOOP('',(#122,#123,#124,#125,#134,#141));
#143=FACE_BOUND('',#142,.T.);
#144=ADVANCED_FACE('',(#143),#114,.F.);
#145=CARTESIAN_POINT('',(0.,20.,-30.));
#146=DIRECTION('',(-1.,0.,0.));
#147=DIRECTION('',(0.,0.,1.));
#148=AXIS2_PLACEMENT_3D('',#145,#146,#147);
#149=CYLINDRICAL_SURFACE('',#148,3.1);
#150=CARTESIAN_POINT('',(-10.,20.,-33.1));
#151=VERTEX_POINT('',#150);
#152=CARTESIAN_POINT('',(-10.,20.,-33.1));
#153=DIRECTION('',(1.,-0.,-0.));
#154=VECTOR('',#153,6.25);
#155=LINE('',#152,#154);
#156=EDGE_CURVE('',#151,#65,#155,.T.);
#157=ORIENTED_EDGE('',*,*,#156,.F.);
#158=CARTESIAN_POINT('',(-10.,20.,-30.));
#159=DIRECTION('',(1.,0.,-0.));
#160=DIRECTION('',(0.,0.,1.));
#161=AXIS2_PLACEMENT_3D('',#158,#159,#160);
#162=CIRCLE('',#161,3.1);
#163=EDGE_CURVE('',#151,#151,#162,.T.);
#164=ORIENTED_EDGE('',*,*,#163,.F.);
#165=ORIENTED_EDGE('',*,*,#156,.T.);
#166=ORIENTED_EDGE('',*,*,#88,.T.);
#167=ORIENTED_EDGE('',*,*,#81,.T.);
#168=EDGE_LOOP('',(#157,#164,#165,#166,#167));
#169=FACE_BOUND('',#168,.T.);
#170=ADVANCED_FACE('',(#169),#149,.F.);
#171=CARTESIAN_POINT('',(-0.1,20.,30.));
#172=DIRECTION('',(1.,0.,-0.));
#173=DIRECTION('',(0.,0.,1.));
#174=AXIS2_PLACEMENT_3D('',#171,#172,#173);
#175=CONICAL_SURFACE('',#174,6.75,45.);
#176=CARTESIAN_POINT('',(-3.75,20.,26.9));
#177=VERTEX_POINT('',#176);
#178=CARTESIAN_POINT('',(-0.1,20.,23.25));
#179=VERTEX_POINT('',#178);
#180=CARTESIAN_POINT('',(-3.75,20.,26.9));
#181=DIRECTION('',(0.707106781,-0.,-0.707106781));
#182=VECTOR('',#181,5.161879503);
#183=LINE('',#180,#182);
#184=EDGE_CURVE('',#177,#179,#183,.T.);
#185=ORIENTED_EDGE('',*,*,#184,.F.);
#186=CARTESIAN_POINT('',(-3.75,20.,33.1));
#187=VERTEX_POINT('',#186);
#188=CARTESIAN_POINT('',(-3.75,20.,30.));
#189=DIRECTION('',(1.,0.,-0.));
#190=DIRECTION('',(0.,0.,1.));
#191=AXIS2_PLACEMENT_3D('',#188,#189,#190);
#192=CIRCLE('',#191,3.1);
#193=EDGE_CURVE('',#187,#177,#192,.T.);
#194=ORIENTED_EDGE('',*,*,#193,.F.);
#195=CARTESIAN_POINT('',(-3.75,20.,30.));
#196=DIRECTION('',(1.,0.,-0.));
#197=DIRECTION('',(0.,0.,1.));
#198=AXIS2_PLACEMENT_3D('',#195,#196,#197);
#199=CIRCLE('',#198,3.1);
#200=EDGE_CURVE('',#177,#187,#199,.T.);
#201=ORIENTED_EDGE('',*,*,#200,.F.);
#202=ORIENTED_EDGE('',*,*,#184,.T.);
#203=CARTESIAN_POINT('',(-0.1,20.,36.75));
#204=VERTEX_POINT('',#203);
#205=CARTESIAN_POINT('',(-0.1,20.,30.));
#206=DIRECTION('',(1.,0.,-0.));
#207=DIRECTION('',(0.,0.,1.));
#208=AXIS2_PLACEMENT_3D('',#205,#206,#207);
#209=CIRCLE('',#208,6.75);
#210=EDGE_CURVE('',#179,#204,#209,.T.);
#211=ORIENTED_EDGE('',*,*,#210,.T.);
#212=CARTESIAN_POINT('',(-0.1,20.,30.));
#213=DIRECTION('',(1.,0.,-0.));
#214=DIRECTION('',(0.,0.,1.));
#215=AXIS2_PLACEMENT_3D('',#212,#213,#214);
#216=CIRCLE('',#215,6.75);
#217=EDGE_CURVE('',#204,#179,#216,.T.);
#218=ORIENTED_EDGE('',*,*,#217,.T.);
#219=EDGE_LOOP('',(#185,#194,#201,#202,#211,#218));
#220=FACE_BOUND('',#219,.T.);
#221=ADVANCED_FACE('',(#220),#175,.F.);
#222=CARTESIAN_POINT('',(0.,20.,30.));
#223=DIRECTION('',(-1.,0.,0.));
#224=DIRECTION('',(0.,0.,1.));
#225=AXIS2_PLACEMENT_3D('',#222,#223,#224);
#226=CYLINDRICAL_SURFACE('',#225,6.75);
#227=CARTESIAN_POINT('',(0.,20.,23.25));
#228=VERTEX_POINT('',#227);
#229=CARTESIAN_POINT('',(-0.1,20.,23.25));
#230=DIRECTION('',(1.,-0.,-0.));
#231=VECTOR('',#230,0.1);
#232=LINE('',#229,#231);
#233=EDGE_CURVE('',#179,#228,#232,.T.);
#234=ORIENTED_EDGE('',*,*,#233,.F.);
#235=ORIENTED_EDGE('',*,*,#217,.F.);
#236=ORIENTED_EDGE('',*,*,#210,.F.);
#237=ORIENTED_EDGE('',*,*,#233,.T.);
#238=CARTESIAN_POINT('',(0.,20.,36.75));
#239=VERTEX_POINT('',#238);
#240=CARTESIAN_POINT('',(0.,20.,30.));
#241=DIRECTION('',(-1.,0.,0.));
#242=DIRECTION('',(0.,0.,1.));
#243=AXIS2_PLACEMENT_3D('',#240,#241,#242);
#244=CIRCLE('',#243,6.75);
#245=EDGE_CURVE('',#239,#228,#244,.T.);
#246=ORIENTED_EDGE('',*,*,#245,.F.);
#247=CARTESIAN_POINT('',(0.,20.,30.));
#248=DIRECTION('',(-1.,0.,0.));
#249=DIRECTION('',(0.,0.,1.));
#250=AXIS2_PLACEMENT_3D('',#247,#248,#249);
#251=CIRCLE('',#250,6.75);
#252=EDGE_CURVE('',#228,#239,#251,.T.);
#253=ORIENTED_EDGE('',*,*,#252,.F.);
#254=EDGE_LOOP('',(#234,#235,#236,#237,#246,#253));
#255=FACE_BOUND('',#254,.T.);
#256=ADVANCED_FACE('',(#255),#226,.F.);
#257=CARTESIAN_POINT('',(0.,20.,30.));
#258=DIRECTION('',(-1.,0.,0.));
#259=DIRECTION('',(0.,0.,1.));
#260=AXIS2_PLACEMENT_3D('',#257,#258,#259);
#261=CYLINDRICAL_SURFACE('',#260,3.1);
#262=CARTESIAN_POINT('',(-10.,20.,26.9));
#263=VERTEX_POINT('',#262);
#264=CARTESIAN_POINT('',(-10.,20.,26.9));
#265=DIRECTION('',(1.,-0.,-0.));
#266=VECTOR('',#265,6.25);
#267=LINE('',#264,#266);
#268=EDGE_CURVE('',#263,#177,#267,.T.);
#269=ORIENTED_EDGE('',*,*,#268,.F.);
#270=CARTESIAN_POINT('',(-10.,20.,30.));
#271=DIRECTION('',(1.,0.,-0.));
#272=DIRECTION('',(0.,0.,1.));
#273=AXIS2_PLACEMENT_3D('',#270,#271,#272);
#274=CIRCLE('',#273,3.1);
#275=EDGE_CURVE('',#263,#263,#274,.T.);
#276=ORIENTED_EDGE('',*,*,#275,.F.);
#277=ORIENTED_EDGE('',*,*,#268,.T.);
#278=ORIENTED_EDGE('',*,*,#200,.T.);
#279=ORIENTED_EDGE('',*,*,#193,.T.);
#280=EDGE_LOOP('',(#269,#276,#277,#278,#279));
#281=FACE_BOUND('',#280,.T.);
#282=ADVANCED_FACE('',(#281),#261,.F.);
#283=CARTESIAN_POINT('',(-6.5,40.,-75.));
#284=DIRECTION('',(0.,1.,0.));
#285=DIRECTION('',(-1.,0.,0.));
#286=AXIS2_PLACEMENT_3D('',#283,#284,#285);
#287=PLANE('',#286);
#288=CARTESIAN_POINT('',(-10.,40.,75.));
#289=VERTEX_POINT('',#288);
#290=CARTESIAN_POINT('',(-3.,40.,75.));
#291=VERTEX_POINT('',#290);
#292=CARTESIAN_POINT('',(-73.,40.,75.));
#293=DIRECTION('',(1.,0.,-0.));
#294=VECTOR('',#293,70.);
#295=LINE('',#292,#294);
#296=EDGE_CURVE('',#289,#291,#295,.T.);
#297=ORIENTED_EDGE('',*,*,#296,.T.);
#298=CARTESIAN_POINT('',(-3.,40.,-75.));
#299=VERTEX_POINT('',#298);
#300=CARTESIAN_POINT('',(-3.,40.,-75.));
#301=DIRECTION('',(0.,0.,1.));
#302=VECTOR('',#301,1500.);
#303=LINE('',#300,#302);
#304=EDGE_CURVE('',#299,#291,#303,.T.);
#305=ORIENTED_EDGE('',*,*,#304,.F.);
#306=CARTESIAN_POINT('',(-10.,40.,-75.));
#307=VERTEX_POINT('',#306);
#308=CARTESIAN_POINT('',(-3.,40.,-75.));
#309=DIRECTION('',(-1.,0.,0.));
#310=VECTOR('',#309,70.);
#311=LINE('',#308,#310);
#312=EDGE_CURVE('',#299,#307,#311,.T.);
#313=ORIENTED_EDGE('',*,*,#312,.T.);
#314=CARTESIAN_POINT('',(-10.,40.,-75.));
#315=DIRECTION('',(0.,0.,1.));
#316=VECTOR('',#315,1500.);
#317=LINE('',#314,#316);
#318=EDGE_CURVE('',#307,#289,#317,.T.);
#319=ORIENTED_EDGE('',*,*,#318,.T.);
#320=EDGE_LOOP('',(#297,#305,#313,#319));
#321=FACE_BOUND('',#320,.T.);
#322=ADVANCED_FACE('',(#321),#287,.T.);
#323=CARTESIAN_POINT('',(-3.,35.,-75.));
#324=DIRECTION('',(1.,0.,0.));
#325=DIRECTION('',(-0.,1.,0.));
#326=AXIS2_PLACEMENT_3D('',#323,#324,#325);
#327=PLANE('',#326);
#328=CARTESIAN_POINT('',(-3.,30.,75.));
#329=VERTEX_POINT('',#328);
#330=CARTESIAN_POINT('',(-3.,130.,75.));
#331=DIRECTION('',(0.,-1.,0.));
#332=VECTOR('',#331,100.);
#333=LINE('',#330,#332);
#334=EDGE_CURVE('',#291,#329,#333,.T.);
#335=ORIENTED_EDGE('',*,*,#334,.T.);
#336=CARTESIAN_POINT('',(-3.,30.,-75.));
#337=VERTEX_POINT('',#336);
#338=CARTESIAN_POINT('',(-3.,30.,-75.));
#339=DIRECTION('',(0.,0.,1.));
#340=VECTOR('',#339,1500.);
#341=LINE('',#338,#340);
#342=EDGE_CURVE('',#337,#329,#341,.T.);
#343=ORIENTED_EDGE('',*,*,#342,.F.);
#344=CARTESIAN_POINT('',(-3.,30.,-75.));
#345=DIRECTION('',(-0.,1.,0.));
#346=VECTOR('',#345,100.);
#347=LINE('',#344,#346);
#348=EDGE_CURVE('',#337,#299,#347,.T.);
#349=ORIENTED_EDGE('',*,*,#348,.T.);
#350=ORIENTED_EDGE('',*,*,#304,.T.);
#351=EDGE_LOOP('',(#335,#343,#349,#350));
#352=FACE_BOUND('',#351,.T.);
#353=ADVANCED_FACE('',(#352),#327,.T.);
#354=CARTESIAN_POINT('',(-1.5,30.,-75.));
#355=DIRECTION('',(0.,1.,0.));
#356=DIRECTION('',(-1.,0.,0.));
#357=AXIS2_PLACEMENT_3D('',#354,#355,#356);
#358=PLANE('',#357);
#359=CARTESIAN_POINT('',(0.,30.,75.));
#360=VERTEX_POINT('',#359);
#361=CARTESIAN_POINT('',(-30.,30.,75.));
#362=DIRECTION('',(1.,0.,-0.));
#363=VECTOR('',#362,30.);
#364=LINE('',#361,#363);
#365=EDGE_CURVE('',#329,#360,#364,.T.);
#366=ORIENTED_EDGE('',*,*,#365,.T.);
#367=CARTESIAN_POINT('',(0.,30.,-75.));
#368=VERTEX_POINT('',#367);
#369=CARTESIAN_POINT('',(0.,30.,-75.));
#370=DIRECTION('',(0.,0.,1.));
#371=VECTOR('',#370,1500.);
#372=LINE('',#369,#371);
#373=EDGE_CURVE('',#368,#360,#372,.T.);
#374=ORIENTED_EDGE('',*,*,#373,.F.);
#375=CARTESIAN_POINT('',(0.,30.,-75.));
#376=DIRECTION('',(-1.,0.,0.));
#377=VECTOR('',#376,30.);
#378=LINE('',#375,#377);
#379=EDGE_CURVE('',#368,#337,#378,.T.);
#380=ORIENTED_EDGE('',*,*,#379,.T.);
#381=ORIENTED_EDGE('',*,*,#342,.T.);
#382=EDGE_LOOP('',(#366,#374,#380,#381));
#383=FACE_BOUND('',#382,.T.);
#384=ADVANCED_FACE('',(#383),#358,.T.);
#385=CARTESIAN_POINT('',(0.,15.,-75.));
#386=DIRECTION('',(1.,0.,0.));
#387=DIRECTION('',(0.,1.,0.));
#388=AXIS2_PLACEMENT_3D('',#385,#386,#387);
#389=PLANE('',#388);
#390=ORIENTED_EDGE('',*,*,#133,.T.);
#391=ORIENTED_EDGE('',*,*,#140,.T.);
#392=EDGE_LOOP('',(#390,#391));
#393=FACE_BOUND('',#392,.T.);
#394=ORIENTED_EDGE('',*,*,#245,.T.);
#395=ORIENTED_EDGE('',*,*,#252,.T.);
#396=EDGE_LOOP('',(#394,#395));
#397=FACE_BOUND('',#396,.T.);
#398=CARTESIAN_POINT('',(0.,0.,75.));
#399=VERTEX_POINT('',#398);
#400=CARTESIAN_POINT('',(0.,300.,75.));
#401=DIRECTION('',(0.,-1.,0.));
#402=VECTOR('',#401,300.);
#403=LINE('',#400,#402);
#404=EDGE_CURVE('',#360,#399,#403,.T.);
#405=ORIENTED_EDGE('',*,*,#404,.T.);
#406=CARTESIAN_POINT('',(0.,0.,-75.));
#407=VERTEX_POINT('',#406);
#408=CARTESIAN_POINT('',(0.,0.,-75.));
#409=DIRECTION('',(0.,0.,1.));
#410=VECTOR('',#409,1500.);
#411=LINE('',#408,#410);
#412=EDGE_CURVE('',#407,#399,#411,.T.);
#413=ORIENTED_EDGE('',*,*,#412,.F.);
#414=CARTESIAN_POINT('',(0.,0.,-75.));
#415=DIRECTION('',(0.,1.,0.));
#416=VECTOR('',#415,300.);
#417=LINE('',#414,#416);
#418=EDGE_CURVE('',#407,#368,#417,.T.);
#419=ORIENTED_EDGE('',*,*,#418,.T.);
#420=ORIENTED_EDGE('',*,*,#373,.T.);
#421=EDGE_LOOP('',(#405,#413,#419,#420));
#422=FACE_BOUND('',#421,.T.);
#423=ADVANCED_FACE('',(#393,#397,#422),#389,.T.);
#424=CARTESIAN_POINT('',(-5.,0.,-75.));
#425=DIRECTION('',(-0.,-1.,0.));
#426=DIRECTION('',(1.,-0.,0.));
#427=AXIS2_PLACEMENT_3D('',#424,#425,#426);
#428=PLANE('',#427);
#429=CARTESIAN_POINT('',(-10.,0.,75.));
#430=VERTEX_POINT('',#429);
#431=CARTESIAN_POINT('',(90.,-0.,75.));
#432=DIRECTION('',(-1.,0.,0.));
#433=VECTOR('',#432,100.);
#434=LINE('',#431,#433);
#435=EDGE_CURVE('',#399,#430,#434,.T.);
#436=ORIENTED_EDGE('',*,*,#435,.T.);
#437=CARTESIAN_POINT('',(-10.,0.,-75.));
#438=VERTEX_POINT('',#437);
#439=CARTESIAN_POINT('',(-10.,0.,-75.));
#440=DIRECTION('',(0.,0.,1.));
#441=VECTOR('',#440,1500.);
#442=LINE('',#439,#441);
#443=EDGE_CURVE('',#438,#430,#442,.T.);
#444=ORIENTED_EDGE('',*,*,#443,.F.);
#445=CARTESIAN_POINT('',(-10.,0.,-75.));
#446=DIRECTION('',(1.,-0.,0.));
#447=VECTOR('',#446,100.);
#448=LINE('',#445,#447);
#449=EDGE_CURVE('',#438,#407,#448,.T.);
#450=ORIENTED_EDGE('',*,*,#449,.T.);
#451=ORIENTED_EDGE('',*,*,#412,.T.);
#452=EDGE_LOOP('',(#436,#444,#450,#451));
#453=FACE_BOUND('',#452,.T.);
#454=ADVANCED_FACE('',(#453),#428,.T.);
#455=CARTESIAN_POINT('',(-10.,20.,-75.));
#456=DIRECTION('',(-1.,0.,0.));
#457=DIRECTION('',(0.,-1.,0.));
#458=AXIS2_PLACEMENT_3D('',#455,#456,#457);
#459=PLANE('',#458);
#460=ORIENTED_EDGE('',*,*,#163,.T.);
#461=EDGE_LOOP('',(#460));
#462=FACE_BOUND('',#461,.T.);
#463=ORIENTED_EDGE('',*,*,#275,.T.);
#464=EDGE_LOOP('',(#463));
#465=FACE_BOUND('',#464,.T.);
#466=CARTESIAN_POINT('',(-10.,-360.,75.));
#467=DIRECTION('',(0.,1.,0.));
#468=VECTOR('',#467,400.);
#469=LINE('',#466,#468);
#470=EDGE_CURVE('',#430,#289,#469,.T.);
#471=ORIENTED_EDGE('',*,*,#470,.T.);
#472=ORIENTED_EDGE('',*,*,#318,.F.);
#473=CARTESIAN_POINT('',(-10.,40.,-75.));
#474=DIRECTION('',(0.,-1.,0.));
#475=VECTOR('',#474,400.);
#476=LINE('',#473,#475);
#477=EDGE_CURVE('',#307,#438,#476,.T.);
#478=ORIENTED_EDGE('',*,*,#477,.T.);
#479=ORIENTED_EDGE('',*,*,#443,.T.);
#480=EDGE_LOOP('',(#471,#472,#478,#479));
#481=FACE_BOUND('',#480,.T.);
#482=ADVANCED_FACE('',(#462,#465,#481),#459,.T.);
#483=CARTESIAN_POINT('',(-5.3,19.7,75.));
#484=DIRECTION('',(0.,0.,1.));
#485=DIRECTION('',(1.,0.,0.));
#486=AXIS2_PLACEMENT_3D('',#483,#484,#485);
#487=PLANE('',#486);
#488=ORIENTED_EDGE('',*,*,#296,.F.);
#489=ORIENTED_EDGE('',*,*,#470,.F.);
#490=ORIENTED_EDGE('',*,*,#435,.F.);
#491=ORIENTED_EDGE('',*,*,#404,.F.);
#492=ORIENTED_EDGE('',*,*,#365,.F.);
#493=ORIENTED_EDGE('',*,*,#334,.F.);
#494=EDGE_LOOP('',(#488,#489,#490,#491,#492,#493));
#495=FACE_BOUND('',#494,.T.);
#496=ADVANCED_FACE('',(#495),#487,.T.);
#497=CARTESIAN_POINT('',(-5.3,19.7,-75.));
#498=DIRECTION('',(0.,0.,1.));
#499=DIRECTION('',(1.,0.,0.));
#500=AXIS2_PLACEMENT_3D('',#497,#498,#499);
#501=PLANE('',#500);
#502=ORIENTED_EDGE('',*,*,#477,.F.);
#503=ORIENTED_EDGE('',*,*,#312,.F.);
#504=ORIENTED_EDGE('',*,*,#348,.F.);
#505=ORIENTED_EDGE('',*,*,#379,.F.);
#506=ORIENTED_EDGE('',*,*,#418,.F.);
#507=ORIENTED_EDGE('',*,*,#449,.F.);
#508=EDGE_LOOP('',(#502,#503,#504,#505,#506,#507));
#509=FACE_BOUND('',#508,.T.);
#510=ADVANCED_FACE('',(#509),#501,.F.);
#511=CLOSED_SHELL('',(#109,#144,#170,#221,#256,#282,#322,#353,#384,#423,#454,#482,#496,#510));
#512=MANIFOLD_SOLID_BREP('alibrePartClosedBody',#511);
#513=COLOUR_RGB('',0.882352948,0.882352948,0.882352948);
#514=FILL_AREA_STYLE_COLOUR('',#513);
#515=FILL_AREA_STYLE('',(#514));
#516=SURFACE_STYLE_FILL_AREA(#515);
#517=SURFACE_SIDE_STYLE('',(#516));
#518=SURFACE_STYLE_USAGE(.BOTH.,#517);
#519=PRESENTATION_STYLE_ASSIGNMENT((#518));
#58=STYLED_ITEM('',(#519),#512);
#39=SHAPE_REPRESENTATION('6315 Aluminium Vice Jaw Set FOR PS-150-AL',(#38),#33);
#40=ADVANCED_BREP_SHAPE_REPRESENTATION('6315 Aluminium Vice Jaw Set FOR PS-150-AL',(#512),#33);
#527=SHAPE_REPRESENTATION_RELATIONSHIP('','',#39,#40);
#528=CARTESIAN_POINT('',(0.,0.,0.));
#529=DIRECTION('',(0.,0.,1.));
#530=DIRECTION('',(1.,0.,0.));
#531=AXIS2_PLACEMENT_3D('',#528,#529,#530);
#533=MAPPED_ITEM('',#532,#531);
#532=REPRESENTATION_MAP(#531,#39);
#534=APPLICATION_CONTEXT('Managed model based 3d engineering');
#535=APPLICATION_PROTOCOL_DEFINITION('international standard','ap242_managed_model_based_3d_engineering',2013,#534);
#536=PRODUCT_CONTEXT('',#534,'mechanical');
#537=PRODUCT_DEFINITION_CONTEXT('part definition',#534,'design');
#47=PRODUCT('6315 Aluminium Vice Jaw Set FOR PS-150-AL','6315 Aluminium Vice Jaw Set FOR PS-150-AL','',(#536));
#538=PRODUCT_RELATED_PRODUCT_CATEGORY('part','',(#47));
#539=PRODUCT_DEFINITION_FORMATION_WITH_SPECIFIED_SOURCE('','',#47,.NOT_KNOWN.);
#48=PRODUCT_DEFINITION('design','',#539,#537);
#46=PRODUCT_DEFINITION_SHAPE('','',#48);
#540=SHAPE_DEFINITION_REPRESENTATION(#46,#39);
#34=DRAUGHTING_MODEL('',(#533),#33);
#541=CARTESIAN_POINT('',(20.,0.,0.));
#542=DIRECTION('',(0.,0.,-1.));
#543=DIRECTION('',(-1.,0.,0.));
#544=AXIS2_PLACEMENT_3D('',#541,#542,#543);
#545=ITEM_DEFINED_TRANSFORMATION('','',#544,#38);
#546=(REPRESENTATION_RELATIONSHIP('','',#39,#16)REPRESENTATION_RELATIONSHIP_WITH_TRANSFORMATION(#545)SHAPE_REPRESENTATION_RELATIONSHIP());
#547=NEXT_ASSEMBLY_USAGE_OCCURRENCE('6315 Aluminium Vice Jaw Set FOR PS-150-AL_2','6315 Aluminium Vice Jaw Set FOR PS-150-AL','6315 Aluminium Vice Jaw Set FOR PS-150-AL',#25,#48,$);
#548=PRODUCT_DEFINITION_SHAPE('','',#547);
#549=CONTEXT_DEPENDENT_SHAPE_REPRESENTATION(#546,#548);
#16=SHAPE_REPRESENTATION('6315 Aluminium Vice Jaw Set FOR PS-150-AL',(#15,#52,#544),#10);
#550=CARTESIAN_POINT('',(0.,0.,0.));
#551=DIRECTION('',(0.,0.,1.));
#552=DIRECTION('',(1.,0.,0.));
#553=AXIS2_PLACEMENT_3D('',#550,#551,#552);
#555=MAPPED_ITEM('',#554,#553);
#554=REPRESENTATION_MAP(#553,#16);
#24=PRODUCT('6315 Aluminium Vice Jaw Set FOR PS-150-AL','6315 Aluminium Vice Jaw Set FOR PS-150-AL','',(#536));
#556=PRODUCT_RELATED_PRODUCT_CATEGORY('part','',(#24));
#557=PRODUCT_DEFINITION_FORMATION_WITH_SPECIFIED_SOURCE('','',#24,.NOT_KNOWN.);
#25=PRODUCT_DEFINITION('design','',#557,#537);
#23=PRODUCT_DEFINITION_SHAPE('','',#25);
#558=SHAPE_DEFINITION_REPRESENTATION(#23,#16);
#11=DRAUGHTING_MODEL('',(#555),#10);
#1=MECHANICAL_DESIGN_GEOMETRIC_PRESENTATION_REPRESENTATION('',(#58),#10);
ENDSEC;
END-ISO-10303-21;
