ISO-10303-21;
HEADER;
/* Generated by software containing ST-Developer
 * from STEP Tools, Inc. (www.steptools.com) 
 */

FILE_DESCRIPTION(
/* description */ ('Alibre Inc.'),
/* implementation_level */ '2;1');

FILE_NAME(
/* name */ 'export-FB0ADE59-1E5D-401A-ABCA-A96CAD63677E',
/* time_stamp */ '2023-06-05T18:12:48+02:00',
/* author */ (''),
/* organization */ (''),
/* preprocessor_version */ 'ST-DEVELOPER v17',
/* originating_system */ 'Alibre',
/* authorisation */ '');

FILE_SCHEMA (('AUTOMOTIVE_DESIGN'));
ENDSEC;

DATA;
#10=CONTEXT_DEPENDENT_SHAPE_REPRESENTATION(#16,#33);
#11=CONTEXT_DEPENDENT_SHAPE_REPRESENTATION(#17,#34);
#12=NEXT_ASSEMBLY_USAGE_OCCURRENCE('NAUO_ID9','NAUO_NAME9',$,#36,#35,$);
#13=NEXT_ASSEMBLY_USAGE_OCCURRENCE('NAUO_ID19','NAUO_NAME19',$,#36,#35,
$);
#14=ITEM_DEFINED_TRANSFORMATION('ITD_NAME0',$,#347,#346);
#15=ITEM_DEFINED_TRANSFORMATION('ITD_NAME10',$,#349,#348);
#16=(
REPRESENTATION_RELATIONSHIP('6318 Aluminium Vice Jaw Set FOR PS-200-AL',
$,#47,#48)
REPRESENTATION_RELATIONSHIP_WITH_TRANSFORMATION(#14)
SHAPE_REPRESENTATION_RELATIONSHIP()
);
#17=(
REPRESENTATION_RELATIONSHIP('6318 Aluminium Vice Jaw Set FOR PS-200-AL',
$,#47,#48)
REPRESENTATION_RELATIONSHIP_WITH_TRANSFORMATION(#15)
SHAPE_REPRESENTATION_RELATIONSHIP()
);
#18=STYLED_ITEM('NAME_0',(#26),#505);
#19=MECHANICAL_DESIGN_GEOMETRIC_PRESENTATION_REPRESENTATION('NAME_0',(#18),
#58);
#20=COLOUR_RGB('',0.882352941176471,0.882352941176471,0.882352941176471);
#21=FILL_AREA_STYLE_COLOUR('NAME_0',#20);
#22=FILL_AREA_STYLE('NAME_0',(#21));
#23=SURFACE_STYLE_FILL_AREA(#22);
#24=SURFACE_SIDE_STYLE('NAME_0',(#23));
#25=SURFACE_STYLE_USAGE(.POSITIVE.,#24);
#26=PRESENTATION_STYLE_ASSIGNMENT((#25));
#27=PRODUCT_DEFINITION_CONTEXT('part definition',#42,'design');
#28=PRODUCT_DEFINITION_CONTEXT('part definition',#42,'design');
#29=SHAPE_DEFINITION_REPRESENTATION(#31,#47);
#30=SHAPE_DEFINITION_REPRESENTATION(#32,#48);
#31=PRODUCT_DEFINITION_SHAPE('PRODUCT_VERSION_ID',
'PRODUCT_VERSION_DESCR',#35);
#32=PRODUCT_DEFINITION_SHAPE('PRODUCT_VERSION_ID',
'PRODUCT_VERSION_DESCR',#36);
#33=PRODUCT_DEFINITION_SHAPE('NAME_10',$,#12);
#34=PRODUCT_DEFINITION_SHAPE('NAME_20',$,#13);
#35=PRODUCT_DEFINITION('6318 Aluminium Vice Jaw Set FOR PS-200-AL',
'PRODUCT_VERSION_DESCR',#37,#27);
#36=PRODUCT_DEFINITION('PRODUCT_VERSION_ID','PRODUCT_VERSION_DESCR',#38,
#28);
#37=PRODUCT_DEFINITION_FORMATION_WITH_SPECIFIED_SOURCE(
'PRODUCT_VERSION_ID','PRODUCT_VERSION_DESCR',#45,.MADE.);
#38=PRODUCT_DEFINITION_FORMATION_WITH_SPECIFIED_SOURCE(
'PRODUCT_VERSION_ID','PRODUCT_VERSION_DESCR',#46,.MADE.);
#39=PRODUCT_RELATED_PRODUCT_CATEGORY('part','part',(#45));
#40=PRODUCT_RELATED_PRODUCT_CATEGORY('part','part',(#46));
#41=APPLICATION_PROTOCOL_DEFINITION('Draft International Standard',
'automotive_design',1994,#42);
#42=APPLICATION_CONTEXT('automotive_Design');
#43=PRODUCT_CONTEXT('3D Mechanical Parts',#42,'mechanical');
#44=PRODUCT_CONTEXT('3D Mechanical Parts',#42,'mechanical');
#45=PRODUCT('','6318 Aluminium Vice Jaw Set FOR PS-200-AL','',(#43));
#46=PRODUCT('','6318 Aluminium Vice Jaw Set FOR PS-200-AL','',(#44));
#47=SHAPE_REPRESENTATION('6318 Aluminium Vice Jaw Set FOR PS-200-AL',(#347,
#349),#58);
#48=SHAPE_REPRESENTATION('NAME_0',(#346,#348),#59);
#49=SHAPE_REPRESENTATION_RELATIONSHIP('NAME_0',$,#47,#506);
#50=(
LENGTH_UNIT()
NAMED_UNIT(*)
SI_UNIT(.MILLI.,.METRE.)
);
#51=(
LENGTH_UNIT()
NAMED_UNIT(*)
SI_UNIT(.MILLI.,.METRE.)
);
#52=(
NAMED_UNIT(*)
PLANE_ANGLE_UNIT()
SI_UNIT($,.RADIAN.)
);
#53=(
NAMED_UNIT(*)
PLANE_ANGLE_UNIT()
SI_UNIT($,.RADIAN.)
);
#54=(
NAMED_UNIT(*)
SI_UNIT($,.STERADIAN.)
SOLID_ANGLE_UNIT()
);
#55=(
NAMED_UNIT(*)
SI_UNIT($,.STERADIAN.)
SOLID_ANGLE_UNIT()
);
#56=UNCERTAINTY_MEASURE_WITH_UNIT(LENGTH_MEASURE(1.E-6),#50,
'DISTANCE_ACCURACY_VALUE',
'Maximum model space distance between geometric entities at asserted c
onnectivities');
#57=UNCERTAINTY_MEASURE_WITH_UNIT(LENGTH_MEASURE(1.E-6),#51,
'DISTANCE_ACCURACY_VALUE',
'Maximum model space distance between geometric entities at asserted c
onnectivities');
#58=(
GEOMETRIC_REPRESENTATION_CONTEXT(3)
GLOBAL_UNCERTAINTY_ASSIGNED_CONTEXT((#56))
GLOBAL_UNIT_ASSIGNED_CONTEXT((#54,#52,#50))
REPRESENTATION_CONTEXT('ID1','3D')
);
#59=(
GEOMETRIC_REPRESENTATION_CONTEXT(3)
GLOBAL_UNCERTAINTY_ASSIGNED_CONTEXT((#57))
GLOBAL_UNIT_ASSIGNED_CONTEXT((#55,#53,#51))
REPRESENTATION_CONTEXT('ID1','3D')
);
#60=VECTOR('',#468,1.);
#61=VECTOR('',#469,1.);
#62=VECTOR('',#470,1.);
#63=VECTOR('',#471,1.);
#64=VECTOR('',#473,1.);
#65=VECTOR('',#474,1.);
#66=VECTOR('',#475,1.);
#67=VECTOR('',#477,1.);
#68=VECTOR('',#478,1.);
#69=VECTOR('',#479,1.);
#70=VECTOR('',#481,1.);
#71=VECTOR('',#482,1.);
#72=VECTOR('',#483,1.);
#73=VECTOR('',#485,1.);
#74=VECTOR('',#486,1.);
#75=VECTOR('',#487,1.);
#76=VECTOR('',#489,1.);
#77=VECTOR('',#490,1.);
#78=LINE('',#384,#60);
#79=LINE('',#387,#61);
#80=LINE('',#389,#62);
#81=LINE('',#391,#63);
#82=LINE('',#393,#64);
#83=LINE('',#395,#65);
#84=LINE('',#397,#66);
#85=LINE('',#399,#67);
#86=LINE('',#401,#68);
#87=LINE('',#403,#69);
#88=LINE('',#405,#70);
#89=LINE('',#407,#71);
#90=LINE('',#409,#72);
#91=LINE('',#411,#73);
#92=LINE('',#413,#74);
#93=LINE('',#415,#75);
#94=LINE('',#417,#76);
#95=LINE('',#418,#77);
#96=PLANE('',#338);
#97=PLANE('',#339);
#98=PLANE('',#340);
#99=PLANE('',#341);
#100=PLANE('',#342);
#101=PLANE('',#343);
#102=PLANE('',#344);
#103=PLANE('',#345);
#104=CYLINDRICAL_SURFACE('',#320,6.25);
#105=CYLINDRICAL_SURFACE('',#322,3.1);
#106=CYLINDRICAL_SURFACE('',#327,6.25);
#107=CYLINDRICAL_SURFACE('',#329,3.1);
#108=CYLINDRICAL_SURFACE('',#334,6.25);
#109=CYLINDRICAL_SURFACE('',#336,3.1);
#110=VERTEX_POINT('',#352);
#111=VERTEX_POINT('',#354);
#112=VERTEX_POINT('',#357);
#113=VERTEX_POINT('',#360);
#114=VERTEX_POINT('',#363);
#115=VERTEX_POINT('',#365);
#116=VERTEX_POINT('',#368);
#117=VERTEX_POINT('',#371);
#118=VERTEX_POINT('',#374);
#119=VERTEX_POINT('',#376);
#120=VERTEX_POINT('',#379);
#121=VERTEX_POINT('',#382);
#122=VERTEX_POINT('',#385);
#123=VERTEX_POINT('',#386);
#124=VERTEX_POINT('',#388);
#125=VERTEX_POINT('',#390);
#126=VERTEX_POINT('',#394);
#127=VERTEX_POINT('',#396);
#128=VERTEX_POINT('',#400);
#129=VERTEX_POINT('',#402);
#130=VERTEX_POINT('',#406);
#131=VERTEX_POINT('',#408);
#132=VERTEX_POINT('',#412);
#133=VERTEX_POINT('',#414);
#134=CIRCLE('',#318,3.1);
#135=CIRCLE('',#319,6.25);
#136=CIRCLE('',#321,6.25);
#137=CIRCLE('',#323,3.1);
#138=CIRCLE('',#325,3.1);
#139=CIRCLE('',#326,6.25);
#140=CIRCLE('',#328,6.25);
#141=CIRCLE('',#330,3.1);
#142=CIRCLE('',#332,3.1);
#143=CIRCLE('',#333,6.25);
#144=CIRCLE('',#335,6.25);
#145=CIRCLE('',#337,3.1);
#146=EDGE_CURVE('',#110,#110,#134,.T.);
#147=EDGE_CURVE('',#111,#111,#135,.T.);
#148=EDGE_CURVE('',#112,#112,#136,.T.);
#149=EDGE_CURVE('',#113,#113,#137,.T.);
#150=EDGE_CURVE('',#114,#114,#138,.T.);
#151=EDGE_CURVE('',#115,#115,#139,.T.);
#152=EDGE_CURVE('',#116,#116,#140,.T.);
#153=EDGE_CURVE('',#117,#117,#141,.T.);
#154=EDGE_CURVE('',#118,#118,#142,.T.);
#155=EDGE_CURVE('',#119,#119,#143,.T.);
#156=EDGE_CURVE('',#120,#120,#144,.T.);
#157=EDGE_CURVE('',#121,#121,#145,.T.);
#158=EDGE_CURVE('',#122,#123,#78,.T.);
#159=EDGE_CURVE('',#124,#123,#79,.T.);
#160=EDGE_CURVE('',#124,#125,#80,.T.);
#161=EDGE_CURVE('',#125,#122,#81,.T.);
#162=EDGE_CURVE('',#123,#126,#82,.T.);
#163=EDGE_CURVE('',#127,#126,#83,.T.);
#164=EDGE_CURVE('',#127,#124,#84,.T.);
#165=EDGE_CURVE('',#126,#128,#85,.T.);
#166=EDGE_CURVE('',#129,#128,#86,.T.);
#167=EDGE_CURVE('',#129,#127,#87,.T.);
#168=EDGE_CURVE('',#128,#130,#88,.T.);
#169=EDGE_CURVE('',#131,#130,#89,.T.);
#170=EDGE_CURVE('',#131,#129,#90,.T.);
#171=EDGE_CURVE('',#130,#132,#91,.T.);
#172=EDGE_CURVE('',#133,#132,#92,.T.);
#173=EDGE_CURVE('',#133,#131,#93,.T.);
#174=EDGE_CURVE('',#132,#122,#94,.T.);
#175=EDGE_CURVE('',#125,#133,#95,.T.);
#176=ORIENTED_EDGE('',*,*,#146,.F.);
#177=ORIENTED_EDGE('',*,*,#147,.T.);
#178=ORIENTED_EDGE('',*,*,#147,.F.);
#179=ORIENTED_EDGE('',*,*,#148,.F.);
#180=ORIENTED_EDGE('',*,*,#146,.T.);
#181=ORIENTED_EDGE('',*,*,#149,.F.);
#182=ORIENTED_EDGE('',*,*,#150,.F.);
#183=ORIENTED_EDGE('',*,*,#151,.T.);
#184=ORIENTED_EDGE('',*,*,#151,.F.);
#185=ORIENTED_EDGE('',*,*,#152,.F.);
#186=ORIENTED_EDGE('',*,*,#150,.T.);
#187=ORIENTED_EDGE('',*,*,#153,.F.);
#188=ORIENTED_EDGE('',*,*,#154,.F.);
#189=ORIENTED_EDGE('',*,*,#155,.T.);
#190=ORIENTED_EDGE('',*,*,#155,.F.);
#191=ORIENTED_EDGE('',*,*,#156,.F.);
#192=ORIENTED_EDGE('',*,*,#154,.T.);
#193=ORIENTED_EDGE('',*,*,#157,.F.);
#194=ORIENTED_EDGE('',*,*,#158,.T.);
#195=ORIENTED_EDGE('',*,*,#159,.F.);
#196=ORIENTED_EDGE('',*,*,#160,.T.);
#197=ORIENTED_EDGE('',*,*,#161,.T.);
#198=ORIENTED_EDGE('',*,*,#162,.T.);
#199=ORIENTED_EDGE('',*,*,#163,.F.);
#200=ORIENTED_EDGE('',*,*,#164,.T.);
#201=ORIENTED_EDGE('',*,*,#159,.T.);
#202=ORIENTED_EDGE('',*,*,#165,.T.);
#203=ORIENTED_EDGE('',*,*,#166,.F.);
#204=ORIENTED_EDGE('',*,*,#167,.T.);
#205=ORIENTED_EDGE('',*,*,#163,.T.);
#206=ORIENTED_EDGE('',*,*,#148,.T.);
#207=ORIENTED_EDGE('',*,*,#152,.T.);
#208=ORIENTED_EDGE('',*,*,#156,.T.);
#209=ORIENTED_EDGE('',*,*,#168,.T.);
#210=ORIENTED_EDGE('',*,*,#169,.F.);
#211=ORIENTED_EDGE('',*,*,#170,.T.);
#212=ORIENTED_EDGE('',*,*,#166,.T.);
#213=ORIENTED_EDGE('',*,*,#171,.T.);
#214=ORIENTED_EDGE('',*,*,#172,.F.);
#215=ORIENTED_EDGE('',*,*,#173,.T.);
#216=ORIENTED_EDGE('',*,*,#169,.T.);
#217=ORIENTED_EDGE('',*,*,#149,.T.);
#218=ORIENTED_EDGE('',*,*,#153,.T.);
#219=ORIENTED_EDGE('',*,*,#157,.T.);
#220=ORIENTED_EDGE('',*,*,#174,.T.);
#221=ORIENTED_EDGE('',*,*,#161,.F.);
#222=ORIENTED_EDGE('',*,*,#175,.T.);
#223=ORIENTED_EDGE('',*,*,#172,.T.);
#224=ORIENTED_EDGE('',*,*,#158,.F.);
#225=ORIENTED_EDGE('',*,*,#174,.F.);
#226=ORIENTED_EDGE('',*,*,#171,.F.);
#227=ORIENTED_EDGE('',*,*,#168,.F.);
#228=ORIENTED_EDGE('',*,*,#165,.F.);
#229=ORIENTED_EDGE('',*,*,#162,.F.);
#230=ORIENTED_EDGE('',*,*,#175,.F.);
#231=ORIENTED_EDGE('',*,*,#160,.F.);
#232=ORIENTED_EDGE('',*,*,#164,.F.);
#233=ORIENTED_EDGE('',*,*,#167,.F.);
#234=ORIENTED_EDGE('',*,*,#170,.F.);
#235=ORIENTED_EDGE('',*,*,#173,.F.);
#236=EDGE_LOOP('',(#176));
#237=EDGE_LOOP('',(#177));
#238=EDGE_LOOP('',(#178));
#239=EDGE_LOOP('',(#179));
#240=EDGE_LOOP('',(#180));
#241=EDGE_LOOP('',(#181));
#242=EDGE_LOOP('',(#182));
#243=EDGE_LOOP('',(#183));
#244=EDGE_LOOP('',(#184));
#245=EDGE_LOOP('',(#185));
#246=EDGE_LOOP('',(#186));
#247=EDGE_LOOP('',(#187));
#248=EDGE_LOOP('',(#188));
#249=EDGE_LOOP('',(#189));
#250=EDGE_LOOP('',(#190));
#251=EDGE_LOOP('',(#191));
#252=EDGE_LOOP('',(#192));
#253=EDGE_LOOP('',(#193));
#254=EDGE_LOOP('',(#194,#195,#196,#197));
#255=EDGE_LOOP('',(#198,#199,#200,#201));
#256=EDGE_LOOP('',(#202,#203,#204,#205));
#257=EDGE_LOOP('',(#206));
#258=EDGE_LOOP('',(#207));
#259=EDGE_LOOP('',(#208));
#260=EDGE_LOOP('',(#209,#210,#211,#212));
#261=EDGE_LOOP('',(#213,#214,#215,#216));
#262=EDGE_LOOP('',(#217));
#263=EDGE_LOOP('',(#218));
#264=EDGE_LOOP('',(#219));
#265=EDGE_LOOP('',(#220,#221,#222,#223));
#266=EDGE_LOOP('',(#224,#225,#226,#227,#228,#229));
#267=EDGE_LOOP('',(#230,#231,#232,#233,#234,#235));
#268=FACE_BOUND('',#236,.T.);
#269=FACE_BOUND('',#237,.T.);
#270=FACE_BOUND('',#238,.T.);
#271=FACE_BOUND('',#239,.T.);
#272=FACE_BOUND('',#240,.T.);
#273=FACE_BOUND('',#241,.T.);
#274=FACE_BOUND('',#242,.T.);
#275=FACE_BOUND('',#243,.T.);
#276=FACE_BOUND('',#244,.T.);
#277=FACE_BOUND('',#245,.T.);
#278=FACE_BOUND('',#246,.T.);
#279=FACE_BOUND('',#247,.T.);
#280=FACE_BOUND('',#248,.T.);
#281=FACE_BOUND('',#249,.T.);
#282=FACE_BOUND('',#250,.T.);
#283=FACE_BOUND('',#251,.T.);
#284=FACE_BOUND('',#252,.T.);
#285=FACE_BOUND('',#253,.T.);
#286=FACE_BOUND('',#254,.T.);
#287=FACE_BOUND('',#255,.T.);
#288=FACE_BOUND('',#256,.T.);
#289=FACE_BOUND('',#257,.T.);
#290=FACE_BOUND('',#258,.T.);
#291=FACE_BOUND('',#259,.T.);
#292=FACE_BOUND('',#260,.T.);
#293=FACE_BOUND('',#261,.T.);
#294=FACE_BOUND('',#262,.T.);
#295=FACE_BOUND('',#263,.T.);
#296=FACE_BOUND('',#264,.T.);
#297=FACE_BOUND('',#265,.T.);
#298=FACE_BOUND('',#266,.T.);
#299=FACE_BOUND('',#267,.T.);
#300=ADVANCED_FACE('',(#268,#269),#501,.F.);
#301=ADVANCED_FACE('',(#270,#271),#104,.F.);
#302=ADVANCED_FACE('',(#272,#273),#105,.F.);
#303=ADVANCED_FACE('',(#274,#275),#502,.F.);
#304=ADVANCED_FACE('',(#276,#277),#106,.F.);
#305=ADVANCED_FACE('',(#278,#279),#107,.F.);
#306=ADVANCED_FACE('',(#280,#281),#503,.F.);
#307=ADVANCED_FACE('',(#282,#283),#108,.F.);
#308=ADVANCED_FACE('',(#284,#285),#109,.F.);
#309=ADVANCED_FACE('',(#286),#96,.T.);
#310=ADVANCED_FACE('',(#287),#97,.T.);
#311=ADVANCED_FACE('',(#288),#98,.T.);
#312=ADVANCED_FACE('',(#289,#290,#291,#292),#99,.T.);
#313=ADVANCED_FACE('',(#293),#100,.T.);
#314=ADVANCED_FACE('',(#294,#295,#296,#297),#101,.T.);
#315=ADVANCED_FACE('',(#298),#102,.T.);
#316=ADVANCED_FACE('',(#299),#103,.F.);
#317=AXIS2_PLACEMENT_3D('',#350,#425,#426);
#318=AXIS2_PLACEMENT_3D('',#351,#427,#428);
#319=AXIS2_PLACEMENT_3D('',#353,#429,#430);
#320=AXIS2_PLACEMENT_3D('',#355,#431,#432);
#321=AXIS2_PLACEMENT_3D('',#356,#433,#434);
#322=AXIS2_PLACEMENT_3D('',#358,#435,#436);
#323=AXIS2_PLACEMENT_3D('',#359,#437,#438);
#324=AXIS2_PLACEMENT_3D('',#361,#439,#440);
#325=AXIS2_PLACEMENT_3D('',#362,#441,#442);
#326=AXIS2_PLACEMENT_3D('',#364,#443,#444);
#327=AXIS2_PLACEMENT_3D('',#366,#445,#446);
#328=AXIS2_PLACEMENT_3D('',#367,#447,#448);
#329=AXIS2_PLACEMENT_3D('',#369,#449,#450);
#330=AXIS2_PLACEMENT_3D('',#370,#451,#452);
#331=AXIS2_PLACEMENT_3D('',#372,#453,#454);
#332=AXIS2_PLACEMENT_3D('',#373,#455,#456);
#333=AXIS2_PLACEMENT_3D('',#375,#457,#458);
#334=AXIS2_PLACEMENT_3D('',#377,#459,#460);
#335=AXIS2_PLACEMENT_3D('',#378,#461,#462);
#336=AXIS2_PLACEMENT_3D('',#380,#463,#464);
#337=AXIS2_PLACEMENT_3D('',#381,#465,#466);
#338=AXIS2_PLACEMENT_3D('',#383,#467,$);
#339=AXIS2_PLACEMENT_3D('',#392,#472,$);
#340=AXIS2_PLACEMENT_3D('',#398,#476,$);
#341=AXIS2_PLACEMENT_3D('',#404,#480,$);
#342=AXIS2_PLACEMENT_3D('',#410,#484,$);
#343=AXIS2_PLACEMENT_3D('',#416,#488,$);
#344=AXIS2_PLACEMENT_3D('',#419,#491,$);
#345=AXIS2_PLACEMENT_3D('',#420,#492,$);
#346=AXIS2_PLACEMENT_3D('AXIS_PLACEMENT_1',#421,#493,#494);
#347=AXIS2_PLACEMENT_3D('AXIS_PLACEMENT_5',#422,#495,#496);
#348=AXIS2_PLACEMENT_3D('AXIS_PLACEMENT_11',#423,#497,#498);
#349=AXIS2_PLACEMENT_3D('AXIS_PLACEMENT_15',#424,#499,#500);
#350=CARTESIAN_POINT('',(-0.100000000000003,24.9,0.));
#351=CARTESIAN_POINT('',(-3.24999999999999,24.9,0.));
#352=CARTESIAN_POINT('',(-3.24999999999999,24.9,-3.1));
#353=CARTESIAN_POINT('',(-0.100000000000003,24.9,0.));
#354=CARTESIAN_POINT('',(-0.100000000000003,24.9,-6.25));
#355=CARTESIAN_POINT('',(-3.04937052987691E-15,24.9,0.));
#356=CARTESIAN_POINT('',(-2.43704713030323E-15,24.9,0.));
#357=CARTESIAN_POINT('',(-3.04937052987691E-15,24.9,-6.25));
#358=CARTESIAN_POINT('',(-3.04937052987691E-15,24.9,0.));
#359=CARTESIAN_POINT('',(-10.,24.9,0.));
#360=CARTESIAN_POINT('',(-10.,24.9,3.1));
#361=CARTESIAN_POINT('',(-0.100000000000003,24.9,-50.));
#362=CARTESIAN_POINT('',(-3.25,24.9,-50.));
#363=CARTESIAN_POINT('',(-3.24999999999999,24.9,-53.1));
#364=CARTESIAN_POINT('',(-0.100000000000003,24.9,-50.));
#365=CARTESIAN_POINT('',(-0.100000000000003,24.9,-56.25));
#366=CARTESIAN_POINT('',(-3.04937052987691E-15,24.9,-50.));
#367=CARTESIAN_POINT('',(-2.43704713030323E-15,24.9,-50.));
#368=CARTESIAN_POINT('',(-3.04937052987691E-15,24.9,-56.25));
#369=CARTESIAN_POINT('',(-3.04937052987691E-15,24.9,-50.));
#370=CARTESIAN_POINT('',(-10.,24.9,-50.));
#371=CARTESIAN_POINT('',(-10.,24.9,-46.9));
#372=CARTESIAN_POINT('',(-0.100000000000003,24.9,50.));
#373=CARTESIAN_POINT('',(-3.25,24.9,50.));
#374=CARTESIAN_POINT('',(-3.24999999999999,24.9,46.9));
#375=CARTESIAN_POINT('',(-0.100000000000003,24.9,50.));
#376=CARTESIAN_POINT('',(-0.100000000000003,24.9,43.75));
#377=CARTESIAN_POINT('',(-3.04937052987691E-15,24.9,50.));
#378=CARTESIAN_POINT('',(-2.43704713030323E-15,24.9,50.));
#379=CARTESIAN_POINT('',(-3.04937052987691E-15,24.9,43.75));
#380=CARTESIAN_POINT('',(-3.04937052987691E-15,24.9,50.));
#381=CARTESIAN_POINT('',(-10.,24.9,50.));
#382=CARTESIAN_POINT('',(-10.,24.9,53.1));
#383=CARTESIAN_POINT('',(-6.50000000000001,49.8,-100.));
#384=CARTESIAN_POINT('',(-3.00000000000001,49.8,100.));
#385=CARTESIAN_POINT('',(-10.,49.8,100.));
#386=CARTESIAN_POINT('',(-3.00000000000001,49.8,100.));
#387=CARTESIAN_POINT('',(-3.00000000000001,49.8,-100.));
#388=CARTESIAN_POINT('',(-3.00000000000001,49.8,-100.));
#389=CARTESIAN_POINT('',(-3.00000000000001,49.8,-100.));
#390=CARTESIAN_POINT('',(-10.,49.8,-100.));
#391=CARTESIAN_POINT('',(-10.,49.8,-100.));
#392=CARTESIAN_POINT('',(-3.00000000000001,44.8,-100.));
#393=CARTESIAN_POINT('',(-3.,39.8,100.));
#394=CARTESIAN_POINT('',(-3.,39.8,100.));
#395=CARTESIAN_POINT('',(-3.,39.8,-100.));
#396=CARTESIAN_POINT('',(-3.,39.8,-100.));
#397=CARTESIAN_POINT('',(-3.,39.8,-100.));
#398=CARTESIAN_POINT('',(-1.5,39.8,-100.));
#399=CARTESIAN_POINT('',(-4.87409426060647E-15,39.8,100.));
#400=CARTESIAN_POINT('',(-4.87409426060647E-15,39.8,100.));
#401=CARTESIAN_POINT('',(-4.87409426060647E-15,39.8,-100.));
#402=CARTESIAN_POINT('',(-4.87409426060647E-15,39.8,-100.));
#403=CARTESIAN_POINT('',(-4.87409426060647E-15,39.8,-100.));
#404=CARTESIAN_POINT('',(-2.43704713030323E-15,19.9,-100.));
#405=CARTESIAN_POINT('',(0.,0.,100.));
#406=CARTESIAN_POINT('',(0.,0.,100.));
#407=CARTESIAN_POINT('',(0.,0.,-100.));
#408=CARTESIAN_POINT('',(0.,0.,-100.));
#409=CARTESIAN_POINT('',(0.,0.,-100.));
#410=CARTESIAN_POINT('',(-5.,6.88624402109585E-16,-100.));
#411=CARTESIAN_POINT('',(-10.,1.37724880421917E-15,100.));
#412=CARTESIAN_POINT('',(-10.,0.,100.));
#413=CARTESIAN_POINT('',(-10.,0.,-100.));
#414=CARTESIAN_POINT('',(-10.,0.,-100.));
#415=CARTESIAN_POINT('',(-10.,1.37724880421917E-15,-100.));
#416=CARTESIAN_POINT('',(-10.,24.9,-100.));
#417=CARTESIAN_POINT('',(-10.,49.8,100.));
#418=CARTESIAN_POINT('',(-10.,49.8,-100.));
#419=CARTESIAN_POINT('',(-5.25083612040134,24.6491638795987,100.));
#420=CARTESIAN_POINT('',(-5.25083612040134,24.6491638795987,-100.));
#421=CARTESIAN_POINT('CARTESIAN_POINT4',(-40.,0.,0.));
#422=CARTESIAN_POINT('CARTESIAN_POINT8',(0.,0.,0.));
#423=CARTESIAN_POINT('CARTESIAN_POINT14',(40.,0.,0.));
#424=CARTESIAN_POINT('CARTESIAN_POINT18',(0.,0.,0.));
#425=DIRECTION('',(1.,0.,0.));
#426=DIRECTION('',(0.,0.,-6.25));
#427=DIRECTION('',(1.,1.18366792177958E-16,0.));
#428=DIRECTION('',(0.,0.,-3.1));
#429=DIRECTION('',(1.,1.22464679914735E-16,0.));
#430=DIRECTION('',(0.,0.,-6.25));
#431=DIRECTION('',(-1.,0.,0.));
#432=DIRECTION('',(0.,0.,-6.25));
#433=DIRECTION('',(-1.,-1.22464679914735E-16,0.));
#434=DIRECTION('',(0.,0.,-6.25));
#435=DIRECTION('',(-1.,-1.18366792177958E-16,0.));
#436=DIRECTION('',(0.,0.,-3.1));
#437=DIRECTION('',(1.,1.33761810195802E-16,0.));
#438=DIRECTION('',(0.,0.,-3.1));
#439=DIRECTION('',(1.,0.,0.));
#440=DIRECTION('',(0.,0.,-6.25));
#441=DIRECTION('',(1.,1.18366792177958E-16,0.));
#442=DIRECTION('',(0.,0.,-3.1));
#443=DIRECTION('',(1.,1.22464679914735E-16,0.));
#444=DIRECTION('',(0.,0.,-6.25));
#445=DIRECTION('',(-1.,0.,0.));
#446=DIRECTION('',(0.,0.,-6.25));
#447=DIRECTION('',(-1.,-1.22464679914735E-16,0.));
#448=DIRECTION('',(0.,0.,-6.25));
#449=DIRECTION('',(-1.,-1.18366792177958E-16,0.));
#450=DIRECTION('',(0.,0.,-3.1));
#451=DIRECTION('',(1.,1.33761810195802E-16,0.));
#452=DIRECTION('',(0.,0.,-3.1));
#453=DIRECTION('',(1.,0.,0.));
#454=DIRECTION('',(0.,0.,-6.25));
#455=DIRECTION('',(1.,1.18366792177958E-16,0.));
#456=DIRECTION('',(0.,0.,-3.1));
#457=DIRECTION('',(1.,1.22464679914735E-16,0.));
#458=DIRECTION('',(0.,0.,-6.25));
#459=DIRECTION('',(-1.,0.,0.));
#460=DIRECTION('',(0.,0.,-6.25));
#461=DIRECTION('',(-1.,-1.22464679914735E-16,0.));
#462=DIRECTION('',(0.,0.,-6.25));
#463=DIRECTION('',(-1.,-1.18366792177958E-16,0.));
#464=DIRECTION('',(0.,0.,-3.1));
#465=DIRECTION('',(1.,1.33761810195802E-16,0.));
#466=DIRECTION('',(0.,0.,-3.1));
#467=DIRECTION('',(0.,1.,0.));
#468=DIRECTION('',(1.,0.,0.));
#469=DIRECTION('',(0.,0.,1.));
#470=DIRECTION('',(-1.,0.,0.));
#471=DIRECTION('',(0.,0.,1.));
#472=DIRECTION('',(1.,1.11022302462516E-16,0.));
#473=DIRECTION('',(1.11022302462516E-16,-1.,0.));
#474=DIRECTION('',(0.,0.,1.));
#475=DIRECTION('',(-1.11022302462516E-16,1.,0.));
#476=DIRECTION('',(0.,1.,0.));
#477=DIRECTION('',(1.,0.,0.));
#478=DIRECTION('',(0.,0.,1.));
#479=DIRECTION('',(-1.,0.,0.));
#480=DIRECTION('',(1.,1.22464679914735E-16,0.));
#481=DIRECTION('',(1.22464679914735E-16,-1.,0.));
#482=DIRECTION('',(0.,0.,1.));
#483=DIRECTION('',(-1.22464679914735E-16,1.,0.));
#484=DIRECTION('',(-1.37724880421917E-16,-1.,0.));
#485=DIRECTION('',(-1.,1.37724880421917E-16,0.));
#486=DIRECTION('',(0.,0.,1.));
#487=DIRECTION('',(1.,-1.37724880421917E-16,0.));
#488=DIRECTION('',(-1.,-1.33761810195802E-16,0.));
#489=DIRECTION('',(-1.33761810195802E-16,1.,0.));
#490=DIRECTION('',(1.33761810195802E-16,-1.,0.));
#491=DIRECTION('',(0.,0.,1.));
#492=DIRECTION('',(0.,0.,1.));
#493=DIRECTION('DIRECTION2',(0.,0.,10.));
#494=DIRECTION('DIRECTION3',(10.,0.,0.));
#495=DIRECTION('DIRECTION6',(0.,0.,1.));
#496=DIRECTION('DIRECTION7',(1.,0.,0.));
#497=DIRECTION('DIRECTION12',(0.,0.,-10.));
#498=DIRECTION('DIRECTION13',(-10.,0.,0.));
#499=DIRECTION('DIRECTION16',(0.,0.,1.));
#500=DIRECTION('DIRECTION17',(1.,0.,0.));
#501=CONICAL_SURFACE('',#317,6.25,0.78539816339745);
#502=CONICAL_SURFACE('',#324,6.25,0.78539816339745);
#503=CONICAL_SURFACE('',#331,6.25,0.78539816339745);
#504=CLOSED_SHELL('',(#300,#301,#302,#303,#304,#305,#306,#307,#308,#309,
#310,#311,#312,#313,#314,#315,#316));
#505=MANIFOLD_SOLID_BREP('',#504);
#506=ADVANCED_BREP_SHAPE_REPRESENTATION(
'6318 Aluminium Vice Jaw Set FOR PS-200-AL',(#505),#58);
ENDSEC;
END-ISO-10303-21;
