ISO-10303-21;
HEADER;

/* File generated by Alibre Version V27 */

FILE_DESCRIPTION(('HOOPS Exchange Step'),'2;1');

FILE_NAME('C:\\Users\\Gebruiker\\AppData\\Local\\Temp\\Alibre Design\\27.0.1.27039\\export-7CAD4EA5-59AE-48EB-899B-6DBE42559BE3.stp',
'2024-08-15T08:06:38+02:00',
('Engineering'),
('Alibre'),
'HOOPS Exchange 2023.0',
'Alibre',
'Unknown authorisation');

FILE_SCHEMA( ('AP242_MANAGED_MODEL_BASED_3D_ENGINEERING_MIM_LF {1 0 10303 442 1 1 4 }') );

ENDSEC;

DATA;
#3=(NAMED_UNIT(*)PLANE_ANGLE_UNIT()SI_UNIT($,.RADIAN.));
#4=PLANE_ANGLE_MEASURE_WITH_UNIT(PLANE_ANGLE_MEASURE(0.0174532925),#3);
#5=(CONVERSION_BASED_UNIT('DEGREE',#4)NAMED_UNIT(#6)PLANE_ANGLE_UNIT());
#6=DIMENSIONAL_EXPONENTS(0.,0.,0.,0.,0.,0.,0.);
#7=(NAMED_UNIT(*)SI_UNIT($,.STERADIAN.)SOLID_ANGLE_UNIT());
#8=(LENGTH_UNIT()NAMED_UNIT(*)SI_UNIT(.MILLI.,.METRE.));
#9=UNCERTAINTY_MEASURE_WITH_UNIT(LENGTH_MEASURE(1.000000E-06),#8,'DISTANCE_ACCURACY_VALUE','Maximum Tolerance applied to model');
#10=(GEOMETRIC_REPRESENTATION_CONTEXT(3)GLOBAL_UNCERTAINTY_ASSIGNED_CONTEXT((#9))GLOBAL_UNIT_ASSIGNED_CONTEXT((#8,#5,#7))REPRESENTATION_CONTEXT('','6930 XEVT 160504R-AL K10 Sharp ground & polished inserts (ALU & non-ferrous materials)'));
#12=CARTESIAN_POINT('',(0.,0.,0.));
#13=DIRECTION('',(0.,0.,1.));
#14=DIRECTION('',(1.,0.,0.));
#15=AXIS2_PLACEMENT_3D('',#12,#13,#14);
#27=CARTESIAN_POINT('',(-4.9,5.6,5.5));
#28=CARTESIAN_POINT('',(-5.098083516,5.6,5.5));
#29=CARTESIAN_POINT('',(-5.296691197,5.532687185,5.5));
#30=CARTESIAN_POINT('',(-5.458553165,5.399357783,5.5));
#31=CARTESIAN_POINT('',(-5.562929156,5.231004785,5.5));
#32=CARTESIAN_POINT('',(-4.704,5.376,4.4));
#33=CARTESIAN_POINT('',(-4.894160176,5.376,4.4));
#34=CARTESIAN_POINT('',(-5.084823549,5.311379697,4.4));
#35=CARTESIAN_POINT('',(-5.240211039,5.183383472,4.4));
#36=CARTESIAN_POINT('',(-5.34041199,5.021764594,4.4));
#37=CARTESIAN_POINT('',(-4.508,5.152,3.3));
#38=CARTESIAN_POINT('',(-4.690236835,5.152,3.3));
#39=CARTESIAN_POINT('',(-4.872955901,5.09007221,3.3));
#40=CARTESIAN_POINT('',(-5.021868913,4.967409161,3.3));
#41=CARTESIAN_POINT('',(-5.117894824,4.812524403,3.3));
#42=CARTESIAN_POINT('',(-4.312,4.928,2.2));
#43=CARTESIAN_POINT('',(-4.486313494,4.928,2.2));
#44=CARTESIAN_POINT('',(-4.661088253,4.868764722,2.2));
#45=CARTESIAN_POINT('',(-4.803526786,4.751434849,2.2));
#46=CARTESIAN_POINT('',(-4.895377658,4.603284211,2.2));
#47=CARTESIAN_POINT('',(-4.116,4.704,1.1));
#48=CARTESIAN_POINT('',(-4.282390153,4.704,1.1));
#49=CARTESIAN_POINT('',(-4.449220606,4.647457235,1.1));
#50=CARTESIAN_POINT('',(-4.585184659,4.535460538,1.1));
#51=CARTESIAN_POINT('',(-4.672860491,4.39404402,1.1));
#52=CARTESIAN_POINT('',(-3.92,4.48,-0.));
#53=CARTESIAN_POINT('',(-4.078466813,4.48,-0.));
#54=CARTESIAN_POINT('',(-4.237352958,4.426149748,-0.));
#55=CARTESIAN_POINT('',(-4.366842532,4.319486226,-0.));
#56=CARTESIAN_POINT('',(-4.450343325,4.184803828,-0.));
#57=B_SPLINE_SURFACE_WITH_KNOTS('',5,4,((#27,#28,#29,#30,#31),(#32,#33,#34,#35,#36),(#37,#38,#39,#40,#41),(#42,#43,#44,#45,#46),(#47,#48,#49,#50,#51),(#52,#53,#54,#55,#56)),.UNSPECIFIED.,.F.,.F.,.U.,(6,6),(5,5),(0.,5.87819121),(2.45044227,3.242776334),.UNSPECIFIED.);
#58=CARTESIAN_POINT('',(-3.92,4.48,-0.));
#59=VERTEX_POINT('',#58);
#60=CARTESIAN_POINT('',(-4.450343325,4.184803828,0.));
#61=VERTEX_POINT('',#60);
#62=CARTESIAN_POINT('',(-3.92,4.48,-0.));
#63=CARTESIAN_POINT('',(-4.078466813,4.48,-0.));
#64=CARTESIAN_POINT('',(-4.237352958,4.426149748,-0.));
#65=CARTESIAN_POINT('',(-4.366842532,4.319486226,-0.));
#66=CARTESIAN_POINT('',(-4.450343325,4.184803828,-0.));
#67=B_SPLINE_CURVE_WITH_KNOTS('',4,(#62,#63,#64,#65,#66),.UNSPECIFIED.,.F.,.F.,(5,5),(2.45044227,3.242776334),.UNSPECIFIED.);
#68=EDGE_CURVE('',#59,#61,#67,.T.);
#69=ORIENTED_EDGE('',*,*,#68,.T.);
#70=CARTESIAN_POINT('',(-5.562929156,5.231004785,5.5));
#71=VERTEX_POINT('',#70);
#72=CARTESIAN_POINT('',(-5.562929156,5.231004785,5.5));
#73=CARTESIAN_POINT('',(-5.34041199,5.021764594,4.4));
#74=CARTESIAN_POINT('',(-5.117894824,4.812524403,3.3));
#75=CARTESIAN_POINT('',(-4.895377658,4.603284211,2.2));
#76=CARTESIAN_POINT('',(-4.672860491,4.39404402,1.1));
#77=CARTESIAN_POINT('',(-4.450343325,4.184803828,-0.));
#78=B_SPLINE_CURVE_WITH_KNOTS('',5,(#72,#73,#74,#75,#76,#77),.UNSPECIFIED.,.F.,.F.,(6,6),(0.,5.87819121),.UNSPECIFIED.);
#79=EDGE_CURVE('',#71,#61,#78,.T.);
#80=ORIENTED_EDGE('',*,*,#79,.F.);
#81=CARTESIAN_POINT('',(-4.9,5.6,5.5));
#82=VERTEX_POINT('',#81);
#83=CARTESIAN_POINT('',(-4.9,5.6,5.5));
#84=CARTESIAN_POINT('',(-5.098083516,5.6,5.5));
#85=CARTESIAN_POINT('',(-5.296691197,5.532687185,5.5));
#86=CARTESIAN_POINT('',(-5.458553165,5.399357783,5.5));
#87=CARTESIAN_POINT('',(-5.562929156,5.231004785,5.5));
#88=B_SPLINE_CURVE_WITH_KNOTS('',4,(#83,#84,#85,#86,#87),.UNSPECIFIED.,.F.,.F.,(5,5),(2.45044227,3.242776334),.UNSPECIFIED.);
#89=EDGE_CURVE('',#82,#71,#88,.T.);
#90=ORIENTED_EDGE('',*,*,#89,.F.);
#91=CARTESIAN_POINT('',(-4.9,5.6,5.5));
#92=CARTESIAN_POINT('',(-4.704,5.376,4.4));
#93=CARTESIAN_POINT('',(-4.508,5.152,3.3));
#94=CARTESIAN_POINT('',(-4.312,4.928,2.2));
#95=CARTESIAN_POINT('',(-4.116,4.704,1.1));
#96=CARTESIAN_POINT('',(-3.92,4.48,-0.));
#97=B_SPLINE_CURVE_WITH_KNOTS('',5,(#91,#92,#93,#94,#95,#96),.UNSPECIFIED.,.F.,.F.,(6,6),(0.,5.87819121),.UNSPECIFIED.);
#98=EDGE_CURVE('',#82,#59,#97,.T.);
#99=ORIENTED_EDGE('',*,*,#98,.T.);
#100=EDGE_LOOP('',(#69,#80,#90,#99));
#101=FACE_BOUND('',#100,.T.);
#102=ADVANCED_FACE('CUT',(#101),#57,.T.);
#103=CARTESIAN_POINT('',(2.61,5.04,2.75));
#104=DIRECTION('',(0.,0.979889453,-0.199541125));
#105=DIRECTION('',(-0.356251282,-0.186449269,-0.91559909));
#106=AXIS2_PLACEMENT_3D('',#103,#104,#105);
#107=PLANE('',#106);
#108=CARTESIAN_POINT('',(8.56,4.48,-0.));
#109=VERTEX_POINT('',#108);
#110=CARTESIAN_POINT('',(8.56,4.48,-0.));
#111=DIRECTION('',(-1.,0.,0.));
#112=VECTOR('',#111,12.48);
#113=LINE('',#110,#112);
#114=EDGE_CURVE('',#109,#59,#113,.T.);
#115=ORIENTED_EDGE('',*,*,#114,.T.);
#116=ORIENTED_EDGE('',*,*,#98,.F.);
#117=CARTESIAN_POINT('',(10.7,5.6,5.5));
#118=VERTEX_POINT('',#117);
#119=CARTESIAN_POINT('',(10.7,5.6,5.5));
#120=DIRECTION('',(-1.,0.,0.));
#121=VECTOR('',#120,15.6);
#122=LINE('',#119,#121);
#123=EDGE_CURVE('',#118,#82,#122,.T.);
#124=ORIENTED_EDGE('',*,*,#123,.F.);
#125=CARTESIAN_POINT('',(10.7,5.6,5.5));
#126=DIRECTION('',(-0.356251282,-0.186449269,-0.91559909));
#127=VECTOR('',#126,6.006995921);
#128=LINE('',#125,#127);
#129=EDGE_CURVE('',#118,#109,#128,.T.);
#130=ORIENTED_EDGE('',*,*,#129,.T.);
#131=EDGE_LOOP('',(#115,#116,#124,#130));
#132=FACE_BOUND('',#131,.T.);
#133=ADVANCED_FACE('CUT',(#132),#107,.T.);
#134=CARTESIAN_POINT('',(-7.49831812,0.688952153,2.75));
#135=DIRECTION('',(-0.82007995,0.5084356,-0.26260639));
#136=DIRECTION('',(0.19491358,-0.183283634,-0.96354336));
#137=AXIS2_PLACEMENT_3D('',#134,#135,#136);
#138=PLANE('',#137);
#139=CARTESIAN_POINT('',(-8.88,-2.96,-0.));
#140=VERTEX_POINT('',#139);
#141=CARTESIAN_POINT('',(-4.450343325,4.184803828,-0.));
#142=DIRECTION('',(-0.526929212,-0.849909175,-0.));
#143=VECTOR('',#142,8.406549827);
#144=LINE('',#141,#143);
#145=EDGE_CURVE('',#61,#140,#144,.T.);
#146=ORIENTED_EDGE('',*,*,#145,.T.);
#147=CARTESIAN_POINT('',(-11.1,-3.7,5.5));
#148=VERTEX_POINT('',#147);
#149=CARTESIAN_POINT('',(-11.1,-3.7,5.5));
#150=DIRECTION('',(0.371416145,0.123805382,-0.920175133));
#151=VECTOR('',#150,5.977123054);
#152=LINE('',#149,#151);
#153=EDGE_CURVE('',#148,#140,#152,.T.);
#154=ORIENTED_EDGE('',*,*,#153,.F.);
#155=CARTESIAN_POINT('',(-5.562929156,5.231004785,5.5));
#156=DIRECTION('',(-0.526929212,-0.849909175,0.));
#157=VECTOR('',#156,10.508187284);
#158=LINE('',#155,#157);
#159=EDGE_CURVE('',#71,#148,#158,.T.);
#160=ORIENTED_EDGE('',*,*,#159,.F.);
#161=ORIENTED_EDGE('',*,*,#79,.T.);
#162=EDGE_LOOP('',(#146,#154,#160,#161));
#163=FACE_BOUND('',#162,.T.);
#164=ADVANCED_FACE('CUT',(#163),#138,.T.);
#165=CARTESIAN_POINT('',(11.1,5.2,5.5));
#166=CARTESIAN_POINT('',(11.1,5.357079633,5.5));
#167=CARTESIAN_POINT('',(11.016172336,5.516172336,5.5));
#168=CARTESIAN_POINT('',(10.857079633,5.6,5.5));
#169=CARTESIAN_POINT('',(10.7,5.6,5.5));
#170=CARTESIAN_POINT('',(10.656,4.992,4.4));
#171=CARTESIAN_POINT('',(10.656,5.142796447,4.4));
#172=CARTESIAN_POINT('',(10.575525442,5.295525442,4.4));
#173=CARTESIAN_POINT('',(10.422796447,5.376,4.4));
#174=CARTESIAN_POINT('',(10.272,5.376,4.4));
#175=CARTESIAN_POINT('',(10.212,4.784,3.3));
#176=CARTESIAN_POINT('',(10.212,4.928513262,3.3));
#177=CARTESIAN_POINT('',(10.134878549,5.074878548,3.3));
#178=CARTESIAN_POINT('',(9.988513261,5.152,3.3));
#179=CARTESIAN_POINT('',(9.844,5.152,3.3));
#180=CARTESIAN_POINT('',(9.768,4.575999999,2.2));
#181=CARTESIAN_POINT('',(9.768,4.714230078,2.2));
#182=CARTESIAN_POINT('',(9.694231655,4.854231656,2.2));
#183=CARTESIAN_POINT('',(9.554230077,4.928,2.2));
#184=CARTESIAN_POINT('',(9.416,4.928,2.2));
#185=CARTESIAN_POINT('',(9.324,4.368,1.1));
#186=CARTESIAN_POINT('',(9.324,4.499946892,1.1));
#187=CARTESIAN_POINT('',(9.253584762,4.633584762,1.1));
#188=CARTESIAN_POINT('',(9.119946892,4.704,1.1));
#189=CARTESIAN_POINT('',(8.988,4.704,1.1));
#190=CARTESIAN_POINT('',(8.88,4.16,-0.));
#191=CARTESIAN_POINT('',(8.88,4.285663706,-0.));
#192=CARTESIAN_POINT('',(8.812937868,4.412937868,-0.));
#193=CARTESIAN_POINT('',(8.685663706,4.48,-0.));
#194=CARTESIAN_POINT('',(8.56,4.48,-0.));
#195=B_SPLINE_SURFACE_WITH_KNOTS('',5,4,((#165,#166,#167,#168,#169),(#170,#171,#172,#173,#174),(#175,#176,#177,#178,#179),(#180,#181,#182,#183,#184),(#185,#186,#187,#188,#189),(#190,#191,#192,#193,#194)),.UNSPECIFIED.,.F.,.F.,.U.,(6,6),(5,5),(0.,5.87819121),(3.141592654,3.769911184),.UNSPECIFIED.);
#196=CARTESIAN_POINT('',(8.88,4.16,-0.));
#197=VERTEX_POINT('',#196);
#198=CARTESIAN_POINT('',(8.88,4.16,-0.));
#199=CARTESIAN_POINT('',(8.88,4.285663706,-0.));
#200=CARTESIAN_POINT('',(8.812937868,4.412937868,-0.));
#201=CARTESIAN_POINT('',(8.685663706,4.48,-0.));
#202=CARTESIAN_POINT('',(8.56,4.48,-0.));
#203=B_SPLINE_CURVE_WITH_KNOTS('',4,(#198,#199,#200,#201,#202),.UNSPECIFIED.,.F.,.F.,(5,5),(3.141592654,3.769911184),.UNSPECIFIED.);
#204=EDGE_CURVE('',#197,#109,#203,.T.);
#205=ORIENTED_EDGE('',*,*,#204,.T.);
#206=ORIENTED_EDGE('',*,*,#129,.F.);
#207=CARTESIAN_POINT('',(11.1,5.2,5.5));
#208=VERTEX_POINT('',#207);
#209=CARTESIAN_POINT('',(11.1,5.2,5.5));
#210=CARTESIAN_POINT('',(11.1,5.357079633,5.5));
#211=CARTESIAN_POINT('',(11.016172336,5.516172336,5.5));
#212=CARTESIAN_POINT('',(10.857079633,5.6,5.5));
#213=CARTESIAN_POINT('',(10.7,5.6,5.5));
#214=B_SPLINE_CURVE_WITH_KNOTS('',4,(#209,#210,#211,#212,#213),.UNSPECIFIED.,.F.,.F.,(5,5),(3.141592654,3.769911184),.UNSPECIFIED.);
#215=EDGE_CURVE('',#208,#118,#214,.T.);
#216=ORIENTED_EDGE('',*,*,#215,.F.);
#217=CARTESIAN_POINT('',(11.1,5.2,5.5));
#218=CARTESIAN_POINT('',(10.656,4.992,4.4));
#219=CARTESIAN_POINT('',(10.212,4.784,3.3));
#220=CARTESIAN_POINT('',(9.768,4.575999999,2.2));
#221=CARTESIAN_POINT('',(9.324,4.368,1.1));
#222=CARTESIAN_POINT('',(8.88,4.16,-0.));
#223=B_SPLINE_CURVE_WITH_KNOTS('',5,(#217,#218,#219,#220,#221,#222),.UNSPECIFIED.,.F.,.F.,(6,6),(0.,5.87819121),.UNSPECIFIED.);
#224=EDGE_CURVE('',#208,#197,#223,.T.);
#225=ORIENTED_EDGE('',*,*,#224,.T.);
#226=EDGE_LOOP('',(#205,#206,#216,#225));
#227=FACE_BOUND('',#226,.T.);
#228=ADVANCED_FACE('CUT',(#227),#195,.T.);
#229=CARTESIAN_POINT('',(9.99,4.005,2.75));
#230=DIRECTION('',(0.92730937,-0.,-0.374295782));
#231=DIRECTION('',(-0.371416145,-0.123805382,-0.920175133));
#232=AXIS2_PLACEMENT_3D('',#229,#230,#231);
#233=PLANE('',#232);
#234=CARTESIAN_POINT('',(8.88,2.96,-0.));
#235=VERTEX_POINT('',#234);
#236=CARTESIAN_POINT('',(8.88,2.96,-0.));
#237=DIRECTION('',(0.,1.,0.));
#238=VECTOR('',#237,1.2);
#239=LINE('',#236,#238);
#240=EDGE_CURVE('',#235,#197,#239,.T.);
#241=ORIENTED_EDGE('',*,*,#240,.T.);
#242=ORIENTED_EDGE('',*,*,#224,.F.);
#243=CARTESIAN_POINT('',(11.1,3.7,5.5));
#244=VERTEX_POINT('',#243);
#245=CARTESIAN_POINT('',(11.1,3.7,5.5));
#246=DIRECTION('',(0.,1.,0.));
#247=VECTOR('',#246,1.5);
#248=LINE('',#245,#247);
#249=EDGE_CURVE('',#244,#208,#248,.T.);
#250=ORIENTED_EDGE('',*,*,#249,.F.);
#251=CARTESIAN_POINT('',(11.1,3.7,5.5));
#252=DIRECTION('',(-0.371416145,-0.123805382,-0.920175133));
#253=VECTOR('',#252,5.977123054);
#254=LINE('',#251,#253);
#255=EDGE_CURVE('',#244,#235,#254,.T.);
#256=ORIENTED_EDGE('',*,*,#255,.T.);
#257=EDGE_LOOP('',(#241,#242,#250,#256));
#258=FACE_BOUND('',#257,.T.);
#259=ADVANCED_FACE('CUT',(#258),#233,.T.);
#260=CARTESIAN_POINT('',(7.49831812,-0.688952153,2.75));
#261=DIRECTION('',(0.82007995,-0.5084356,-0.26260639));
#262=DIRECTION('',(-0.19491358,0.183283634,-0.96354336));
#263=AXIS2_PLACEMENT_3D('',#260,#261,#262);
#264=PLANE('',#263);
#265=CARTESIAN_POINT('',(4.450343325,-4.184803828,0.));
#266=VERTEX_POINT('',#265);
#267=CARTESIAN_POINT('',(4.450343325,-4.184803828,-0.));
#268=DIRECTION('',(0.526929212,0.849909175,-0.));
#269=VECTOR('',#268,8.406549827);
#270=LINE('',#267,#269);
#271=EDGE_CURVE('',#266,#235,#270,.T.);
#272=ORIENTED_EDGE('',*,*,#271,.T.);
#273=ORIENTED_EDGE('',*,*,#255,.F.);
#274=CARTESIAN_POINT('',(5.562929156,-5.231004785,5.5));
#275=VERTEX_POINT('',#274);
#276=CARTESIAN_POINT('',(5.562929156,-5.231004785,5.5));
#277=DIRECTION('',(0.526929212,0.849909175,0.));
#278=VECTOR('',#277,10.508187284);
#279=LINE('',#276,#278);
#280=EDGE_CURVE('',#275,#244,#279,.T.);
#281=ORIENTED_EDGE('',*,*,#280,.F.);
#282=CARTESIAN_POINT('',(5.562929156,-5.231004785,5.5));
#283=DIRECTION('',(-0.19491358,0.183283634,-0.96354336));
#284=VECTOR('',#283,5.708098079);
#285=LINE('',#282,#284);
#286=EDGE_CURVE('',#275,#266,#285,.T.);
#287=ORIENTED_EDGE('',*,*,#286,.T.);
#288=EDGE_LOOP('',(#272,#273,#281,#287));
#289=FACE_BOUND('',#288,.T.);
#290=ADVANCED_FACE('CUT',(#289),#264,.T.);
#291=CARTESIAN_POINT('',(4.9,-5.6,5.5));
#292=CARTESIAN_POINT('',(5.098083516,-5.6,5.5));
#293=CARTESIAN_POINT('',(5.296691197,-5.532687185,5.5));
#294=CARTESIAN_POINT('',(5.458553165,-5.399357783,5.5));
#295=CARTESIAN_POINT('',(5.562929156,-5.231004785,5.5));
#296=CARTESIAN_POINT('',(4.704,-5.376,4.4));
#297=CARTESIAN_POINT('',(4.894160176,-5.376,4.4));
#298=CARTESIAN_POINT('',(5.084823549,-5.311379697,4.4));
#299=CARTESIAN_POINT('',(5.240211039,-5.183383472,4.4));
#300=CARTESIAN_POINT('',(5.34041199,-5.021764594,4.4));
#301=CARTESIAN_POINT('',(4.508,-5.152,3.3));
#302=CARTESIAN_POINT('',(4.690236835,-5.152,3.3));
#303=CARTESIAN_POINT('',(4.872955901,-5.09007221,3.3));
#304=CARTESIAN_POINT('',(5.021868913,-4.96740916,3.3));
#305=CARTESIAN_POINT('',(5.117894824,-4.812524403,3.3));
#306=CARTESIAN_POINT('',(4.312,-4.928,2.2));
#307=CARTESIAN_POINT('',(4.486313494,-4.928,2.2));
#308=CARTESIAN_POINT('',(4.661088253,-4.868764722,2.2));
#309=CARTESIAN_POINT('',(4.803526786,-4.751434849,2.2));
#310=CARTESIAN_POINT('',(4.895377658,-4.603284211,2.2));
#311=CARTESIAN_POINT('',(4.116,-4.704,1.1));
#312=CARTESIAN_POINT('',(4.282390153,-4.704,1.1));
#313=CARTESIAN_POINT('',(4.449220606,-4.647457235,1.1));
#314=CARTESIAN_POINT('',(4.585184659,-4.535460538,1.1));
#315=CARTESIAN_POINT('',(4.672860491,-4.39404402,1.1));
#316=CARTESIAN_POINT('',(3.92,-4.48,-0.));
#317=CARTESIAN_POINT('',(4.078466813,-4.48,-0.));
#318=CARTESIAN_POINT('',(4.237352958,-4.426149748,-0.));
#319=CARTESIAN_POINT('',(4.366842532,-4.319486226,-0.));
#320=CARTESIAN_POINT('',(4.450343325,-4.184803828,-0.));
#321=B_SPLINE_SURFACE_WITH_KNOTS('',5,4,((#291,#292,#293,#294,#295),(#296,#297,#298,#299,#300),(#301,#302,#303,#304,#305),(#306,#307,#308,#309,#310),(#311,#312,#313,#314,#315),(#316,#317,#318,#319,#320)),.UNSPECIFIED.,.F.,.F.,.U.,(6,6),(5,5),(0.,5.87819121),(0.,0.792334064),.UNSPECIFIED.);
#322=CARTESIAN_POINT('',(3.92,-4.48,-0.));
#323=VERTEX_POINT('',#322);
#324=CARTESIAN_POINT('',(3.92,-4.48,-0.));
#325=CARTESIAN_POINT('',(4.078466813,-4.48,-0.));
#326=CARTESIAN_POINT('',(4.237352958,-4.426149748,-0.));
#327=CARTESIAN_POINT('',(4.366842532,-4.319486226,-0.));
#328=CARTESIAN_POINT('',(4.450343325,-4.184803828,-0.));
#329=B_SPLINE_CURVE_WITH_KNOTS('',4,(#324,#325,#326,#327,#328),.UNSPECIFIED.,.F.,.F.,(5,5),(0.,0.792334064),.UNSPECIFIED.);
#330=EDGE_CURVE('',#323,#266,#329,.T.);
#331=ORIENTED_EDGE('',*,*,#330,.T.);
#332=ORIENTED_EDGE('',*,*,#286,.F.);
#333=CARTESIAN_POINT('',(4.9,-5.6,5.5));
#334=VERTEX_POINT('',#333);
#335=CARTESIAN_POINT('',(4.9,-5.6,5.5));
#336=CARTESIAN_POINT('',(5.098083516,-5.6,5.5));
#337=CARTESIAN_POINT('',(5.296691197,-5.532687185,5.5));
#338=CARTESIAN_POINT('',(5.458553165,-5.399357783,5.5));
#339=CARTESIAN_POINT('',(5.562929156,-5.231004785,5.5));
#340=B_SPLINE_CURVE_WITH_KNOTS('',4,(#335,#336,#337,#338,#339),.UNSPECIFIED.,.F.,.F.,(5,5),(0.,0.792334064),.UNSPECIFIED.);
#341=EDGE_CURVE('',#334,#275,#340,.T.);
#342=ORIENTED_EDGE('',*,*,#341,.F.);
#343=CARTESIAN_POINT('',(4.9,-5.6,5.5));
#344=CARTESIAN_POINT('',(4.704,-5.376,4.4));
#345=CARTESIAN_POINT('',(4.508,-5.152,3.3));
#346=CARTESIAN_POINT('',(4.312,-4.928,2.2));
#347=CARTESIAN_POINT('',(4.116,-4.704,1.1));
#348=CARTESIAN_POINT('',(3.92,-4.48,-0.));
#349=B_SPLINE_CURVE_WITH_KNOTS('',5,(#343,#344,#345,#346,#347,#348),.UNSPECIFIED.,.F.,.F.,(6,6),(0.,5.87819121),.UNSPECIFIED.);
#350=EDGE_CURVE('',#334,#323,#349,.T.);
#351=ORIENTED_EDGE('',*,*,#350,.T.);
#352=EDGE_LOOP('',(#331,#332,#342,#351));
#353=FACE_BOUND('',#352,.T.);
#354=ADVANCED_FACE('CUT',(#353),#321,.T.);
#355=CARTESIAN_POINT('',(-2.61,-5.04,2.75));
#356=DIRECTION('',(0.,-0.979889453,-0.199541125));
#357=DIRECTION('',(0.356251282,0.186449269,-0.91559909));
#358=AXIS2_PLACEMENT_3D('',#355,#356,#357);
#359=PLANE('',#358);
#360=CARTESIAN_POINT('',(-8.56,-4.48,-0.));
#361=VERTEX_POINT('',#360);
#362=CARTESIAN_POINT('',(-8.56,-4.48,-0.));
#363=DIRECTION('',(1.,0.,-0.));
#364=VECTOR('',#363,12.48);
#365=LINE('',#362,#364);
#366=EDGE_CURVE('',#361,#323,#365,.T.);
#367=ORIENTED_EDGE('',*,*,#366,.T.);
#368=ORIENTED_EDGE('',*,*,#350,.F.);
#369=CARTESIAN_POINT('',(-10.7,-5.6,5.5));
#370=VERTEX_POINT('',#369);
#371=CARTESIAN_POINT('',(-10.7,-5.6,5.5));
#372=DIRECTION('',(1.,0.,-0.));
#373=VECTOR('',#372,15.6);
#374=LINE('',#371,#373);
#375=EDGE_CURVE('',#370,#334,#374,.T.);
#376=ORIENTED_EDGE('',*,*,#375,.F.);
#377=CARTESIAN_POINT('',(-10.7,-5.6,5.5));
#378=DIRECTION('',(0.356251282,0.186449269,-0.91559909));
#379=VECTOR('',#378,6.006995921);
#380=LINE('',#377,#379);
#381=EDGE_CURVE('',#370,#361,#380,.T.);
#382=ORIENTED_EDGE('',*,*,#381,.T.);
#383=EDGE_LOOP('',(#367,#368,#376,#382));
#384=FACE_BOUND('',#383,.T.);
#385=ADVANCED_FACE('CUT',(#384),#359,.T.);
#386=CARTESIAN_POINT('',(-11.1,-5.2,5.5));
#387=CARTESIAN_POINT('',(-11.1,-5.357079633,5.5));
#388=CARTESIAN_POINT('',(-11.016172336,-5.516172336,5.5));
#389=CARTESIAN_POINT('',(-10.857079633,-5.6,5.5));
#390=CARTESIAN_POINT('',(-10.7,-5.6,5.5));
#391=CARTESIAN_POINT('',(-10.656,-4.992,4.4));
#392=CARTESIAN_POINT('',(-10.656,-5.142796447,4.4));
#393=CARTESIAN_POINT('',(-10.575525442,-5.295525442,4.4));
#394=CARTESIAN_POINT('',(-10.422796447,-5.376,4.4));
#395=CARTESIAN_POINT('',(-10.272,-5.376,4.4));
#396=CARTESIAN_POINT('',(-10.212,-4.784,3.3));
#397=CARTESIAN_POINT('',(-10.212,-4.928513262,3.3));
#398=CARTESIAN_POINT('',(-10.134878549,-5.074878548,3.3));
#399=CARTESIAN_POINT('',(-9.988513261,-5.152,3.3));
#400=CARTESIAN_POINT('',(-9.844,-5.152,3.3));
#401=CARTESIAN_POINT('',(-9.768,-4.575999999,2.2));
#402=CARTESIAN_POINT('',(-9.768,-4.714230078,2.2));
#403=CARTESIAN_POINT('',(-9.694231655,-4.854231656,2.2));
#404=CARTESIAN_POINT('',(-9.554230077,-4.928,2.2));
#405=CARTESIAN_POINT('',(-9.416,-4.928,2.2));
#406=CARTESIAN_POINT('',(-9.324,-4.368,1.1));
#407=CARTESIAN_POINT('',(-9.324,-4.499946892,1.1));
#408=CARTESIAN_POINT('',(-9.253584762,-4.633584762,1.1));
#409=CARTESIAN_POINT('',(-9.119946892,-4.704,1.1));
#410=CARTESIAN_POINT('',(-8.988,-4.704,1.1));
#411=CARTESIAN_POINT('',(-8.88,-4.16,-0.));
#412=CARTESIAN_POINT('',(-8.88,-4.285663706,-0.));
#413=CARTESIAN_POINT('',(-8.812937868,-4.412937868,-0.));
#414=CARTESIAN_POINT('',(-8.685663706,-4.48,-0.));
#415=CARTESIAN_POINT('',(-8.56,-4.48,-0.));
#416=B_SPLINE_SURFACE_WITH_KNOTS('',5,4,((#386,#387,#388,#389,#390),(#391,#392,#393,#394,#395),(#396,#397,#398,#399,#400),(#401,#402,#403,#404,#405),(#406,#407,#408,#409,#410),(#411,#412,#413,#414,#415)),.UNSPECIFIED.,.F.,.F.,.U.,(6,6),(5,5),(0.,5.87819121),(1.884955592,2.513274123),.UNSPECIFIED.);
#417=CARTESIAN_POINT('',(-8.88,-4.16,-0.));
#418=VERTEX_POINT('',#417);
#419=CARTESIAN_POINT('',(-8.88,-4.16,-0.));
#420=CARTESIAN_POINT('',(-8.88,-4.285663706,-0.));
#421=CARTESIAN_POINT('',(-8.812937868,-4.412937868,-0.));
#422=CARTESIAN_POINT('',(-8.685663706,-4.48,-0.));
#423=CARTESIAN_POINT('',(-8.56,-4.48,-0.));
#424=B_SPLINE_CURVE_WITH_KNOTS('',4,(#419,#420,#421,#422,#423),.UNSPECIFIED.,.F.,.F.,(5,5),(1.884955592,2.513274123),.UNSPECIFIED.);
#425=EDGE_CURVE('',#418,#361,#424,.T.);
#426=ORIENTED_EDGE('',*,*,#425,.T.);
#427=ORIENTED_EDGE('',*,*,#381,.F.);
#428=CARTESIAN_POINT('',(-11.1,-5.2,5.5));
#429=VERTEX_POINT('',#428);
#430=CARTESIAN_POINT('',(-11.1,-5.2,5.5));
#431=CARTESIAN_POINT('',(-11.1,-5.357079633,5.5));
#432=CARTESIAN_POINT('',(-11.016172336,-5.516172336,5.5));
#433=CARTESIAN_POINT('',(-10.857079633,-5.6,5.5));
#434=CARTESIAN_POINT('',(-10.7,-5.6,5.5));
#435=B_SPLINE_CURVE_WITH_KNOTS('',4,(#430,#431,#432,#433,#434),.UNSPECIFIED.,.F.,.F.,(5,5),(1.884955592,2.513274123),.UNSPECIFIED.);
#436=EDGE_CURVE('',#429,#370,#435,.T.);
#437=ORIENTED_EDGE('',*,*,#436,.F.);
#438=CARTESIAN_POINT('',(-11.1,-5.2,5.5));
#439=CARTESIAN_POINT('',(-10.656,-4.992,4.4));
#440=CARTESIAN_POINT('',(-10.212,-4.784,3.3));
#441=CARTESIAN_POINT('',(-9.768,-4.575999999,2.2));
#442=CARTESIAN_POINT('',(-9.324,-4.368,1.1));
#443=CARTESIAN_POINT('',(-8.88,-4.16,-0.));
#444=B_SPLINE_CURVE_WITH_KNOTS('',5,(#438,#439,#440,#441,#442,#443),.UNSPECIFIED.,.F.,.F.,(6,6),(0.,5.87819121),.UNSPECIFIED.);
#445=EDGE_CURVE('',#429,#418,#444,.T.);
#446=ORIENTED_EDGE('',*,*,#445,.T.);
#447=EDGE_LOOP('',(#426,#427,#437,#446));
#448=FACE_BOUND('',#447,.T.);
#449=ADVANCED_FACE('CUT',(#448),#416,.T.);
#450=CARTESIAN_POINT('',(-9.99,-4.005,2.75));
#451=DIRECTION('',(-0.92730937,0.,-0.374295782));
#452=DIRECTION('',(0.371416145,0.123805382,-0.920175133));
#453=AXIS2_PLACEMENT_3D('',#450,#451,#452);
#454=PLANE('',#453);
#455=CARTESIAN_POINT('',(-8.88,-2.96,-0.));
#456=DIRECTION('',(0.,-1.,0.));
#457=VECTOR('',#456,1.2);
#458=LINE('',#455,#457);
#459=EDGE_CURVE('',#140,#418,#458,.T.);
#460=ORIENTED_EDGE('',*,*,#459,.T.);
#461=ORIENTED_EDGE('',*,*,#445,.F.);
#462=CARTESIAN_POINT('',(-11.1,-3.7,5.5));
#463=DIRECTION('',(0.,-1.,0.));
#464=VECTOR('',#463,1.5);
#465=LINE('',#462,#464);
#466=EDGE_CURVE('',#148,#429,#465,.T.);
#467=ORIENTED_EDGE('',*,*,#466,.F.);
#468=ORIENTED_EDGE('',*,*,#153,.T.);
#469=EDGE_LOOP('',(#460,#461,#467,#468));
#470=FACE_BOUND('',#469,.T.);
#471=ADVANCED_FACE('CUT',(#470),#454,.T.);
#472=CARTESIAN_POINT('',(0.,0.,-0.));
#473=DIRECTION('',(0.,0.,-1.));
#474=DIRECTION('',(0.954905658,0.296909386,0.));
#475=AXIS2_PLACEMENT_3D('',#472,#473,#474);
#476=PLANE('',#475);
#477=ORIENTED_EDGE('',*,*,#114,.F.);
#478=ORIENTED_EDGE('',*,*,#204,.F.);
#479=ORIENTED_EDGE('',*,*,#240,.F.);
#480=ORIENTED_EDGE('',*,*,#271,.F.);
#481=ORIENTED_EDGE('',*,*,#330,.F.);
#482=ORIENTED_EDGE('',*,*,#366,.F.);
#483=ORIENTED_EDGE('',*,*,#425,.F.);
#484=ORIENTED_EDGE('',*,*,#459,.F.);
#485=ORIENTED_EDGE('',*,*,#145,.F.);
#486=ORIENTED_EDGE('',*,*,#68,.F.);
#487=EDGE_LOOP('',(#477,#478,#479,#480,#481,#482,#483,#484,#485,#486));
#488=FACE_BOUND('',#487,.T.);
#489=CARTESIAN_POINT('',(-0.,-2.5,-0.));
#490=VERTEX_POINT('',#489);
#491=CARTESIAN_POINT('',(-0.,2.5,-0.));
#492=VERTEX_POINT('',#491);
#493=CARTESIAN_POINT('',(0.,-0.,-0.));
#494=DIRECTION('',(-0.,0.,1.));
#495=DIRECTION('',(1.,0.,0.));
#496=AXIS2_PLACEMENT_3D('',#493,#494,#495);
#497=CIRCLE('',#496,2.5);
#498=EDGE_CURVE('',#490,#492,#497,.T.);
#499=ORIENTED_EDGE('',*,*,#498,.T.);
#500=CARTESIAN_POINT('',(0.,-0.,-0.));
#501=DIRECTION('',(-0.,0.,1.));
#502=DIRECTION('',(1.,0.,0.));
#503=AXIS2_PLACEMENT_3D('',#500,#501,#502);
#504=CIRCLE('',#503,2.5);
#505=EDGE_CURVE('',#492,#490,#504,.T.);
#506=ORIENTED_EDGE('',*,*,#505,.T.);
#507=EDGE_LOOP('',(#499,#506));
#508=FACE_BOUND('',#507,.T.);
#509=ADVANCED_FACE('CUT',(#488,#508),#476,.T.);
#510=CARTESIAN_POINT('',(0.,-0.,5.5));
#511=DIRECTION('',(0.,0.,-1.));
#512=DIRECTION('',(0.954689991,0.297602118,0.));
#513=AXIS2_PLACEMENT_3D('',#510,#511,#512);
#514=PLANE('',#513);
#515=ORIENTED_EDGE('',*,*,#89,.T.);
#516=ORIENTED_EDGE('',*,*,#159,.T.);
#517=ORIENTED_EDGE('',*,*,#466,.T.);
#518=ORIENTED_EDGE('',*,*,#436,.T.);
#519=ORIENTED_EDGE('',*,*,#375,.T.);
#520=ORIENTED_EDGE('',*,*,#341,.T.);
#521=ORIENTED_EDGE('',*,*,#280,.T.);
#522=ORIENTED_EDGE('',*,*,#249,.T.);
#523=ORIENTED_EDGE('',*,*,#215,.T.);
#524=ORIENTED_EDGE('',*,*,#123,.T.);
#525=EDGE_LOOP('',(#515,#516,#517,#518,#519,#520,#521,#522,#523,#524));
#526=FACE_BOUND('',#525,.T.);
#527=CARTESIAN_POINT('',(0.,-2.5,5.5));
#528=VERTEX_POINT('',#527);
#529=CARTESIAN_POINT('',(-0.,2.5,5.5));
#530=VERTEX_POINT('',#529);
#531=CARTESIAN_POINT('',(-0.,0.,5.5));
#532=DIRECTION('',(0.,0.,-1.));
#533=DIRECTION('',(1.,0.,0.));
#534=AXIS2_PLACEMENT_3D('',#531,#532,#533);
#535=CIRCLE('',#534,2.5);
#536=EDGE_CURVE('',#528,#530,#535,.T.);
#537=ORIENTED_EDGE('',*,*,#536,.T.);
#538=CARTESIAN_POINT('',(0.,0.,5.5));
#539=DIRECTION('',(0.,0.,-1.));
#540=DIRECTION('',(1.,0.,0.));
#541=AXIS2_PLACEMENT_3D('',#538,#539,#540);
#542=CIRCLE('',#541,2.5);
#543=EDGE_CURVE('',#530,#528,#542,.T.);
#544=ORIENTED_EDGE('',*,*,#543,.T.);
#545=EDGE_LOOP('',(#537,#544));
#546=FACE_BOUND('',#545,.T.);
#547=ADVANCED_FACE('CUT',(#526,#546),#514,.F.);
#548=CARTESIAN_POINT('',(0.,0.,10.));
#549=DIRECTION('',(0.,-0.,1.));
#550=DIRECTION('',(0.,-1.,-0.));
#551=AXIS2_PLACEMENT_3D('',#548,#549,#550);
#552=CYLINDRICAL_SURFACE('',#551,2.5);
#553=ORIENTED_EDGE('',*,*,#536,.F.);
#554=CARTESIAN_POINT('',(0.,-2.5,-0.));
#555=DIRECTION('',(0.,0.,1.));
#556=VECTOR('',#555,5.5);
#557=LINE('',#554,#556);
#558=EDGE_CURVE('',#490,#528,#557,.T.);
#559=ORIENTED_EDGE('',*,*,#558,.F.);
#560=ORIENTED_EDGE('',*,*,#505,.F.);
#561=CARTESIAN_POINT('',(0.,2.5,-0.));
#562=DIRECTION('',(0.,0.,1.));
#563=VECTOR('',#562,5.5);
#564=LINE('',#561,#563);
#565=EDGE_CURVE('',#492,#530,#564,.T.);
#566=ORIENTED_EDGE('',*,*,#565,.T.);
#567=EDGE_LOOP('',(#553,#559,#560,#566));
#568=FACE_BOUND('',#567,.T.);
#569=ADVANCED_FACE('CUT',(#568),#552,.F.);
#570=CARTESIAN_POINT('',(0.,0.,10.));
#571=DIRECTION('',(0.,-0.,1.));
#572=DIRECTION('',(0.,-1.,-0.));
#573=AXIS2_PLACEMENT_3D('',#570,#571,#572);
#574=CYLINDRICAL_SURFACE('',#573,2.5);
#575=ORIENTED_EDGE('',*,*,#543,.F.);
#576=ORIENTED_EDGE('',*,*,#565,.F.);
#577=ORIENTED_EDGE('',*,*,#498,.F.);
#578=ORIENTED_EDGE('',*,*,#558,.T.);
#579=EDGE_LOOP('',(#575,#576,#577,#578));
#580=FACE_BOUND('',#579,.T.);
#581=ADVANCED_FACE('CUT',(#580),#574,.F.);
#582=CLOSED_SHELL('',(#102,#133,#164,#228,#259,#290,#354,#385,#449,#471,#509,#547,#569,#581));
#583=MANIFOLD_SOLID_BREP('CUT',#582);
#584=COLOUR_RGB('',0.800000012,0.800000012,0.800000012);
#585=FILL_AREA_STYLE_COLOUR('',#584);
#586=FILL_AREA_STYLE('',(#585));
#587=SURFACE_STYLE_FILL_AREA(#586);
#588=SURFACE_SIDE_STYLE('',(#587));
#589=SURFACE_STYLE_USAGE(.BOTH.,#588);
#590=PRESENTATION_STYLE_ASSIGNMENT((#589));
#26=STYLED_ITEM('',(#590),#583);
#591=INTEGER_REPRESENTATION_ITEM('ATTRIB_BOUNDING_BOX_ALGORITHM',3);
#592=ID_ATTRIBUTE('SA #593',#593);
#593=SHAPE_ASPECT('properties','',#23,.F.);
#594=GEOMETRIC_ITEM_SPECIFIC_USAGE('','properties',#593,#17,#583);
#595=PROPERTY_DEFINITION('ATTRIB_BOUNDING_BOX_ALGORITHM','',#593);
#596=REPRESENTATION('',(#591),#10);
#597=PROPERTY_DEFINITION_REPRESENTATION(#595,#596);
#598=GENERAL_PROPERTY('','ATTRIB_BOUNDING_BOX_ALGORITHM','');
#599=GENERAL_PROPERTY_ASSOCIATION('','',#598,#595);
#16=SHAPE_REPRESENTATION('6930 XEVT 160504R-AL K10 Sharp ground & polished inserts (ALU & non-ferrous materials)',(#15),#10);
#17=ADVANCED_BREP_SHAPE_REPRESENTATION('6930 XEVT 160504R-AL K10 Sharp ground & polished inserts (ALU & non-ferrous materials)',(#583),#10);
#607=SHAPE_REPRESENTATION_RELATIONSHIP('','',#16,#17);
#608=CARTESIAN_POINT('',(0.,0.,0.));
#609=DIRECTION('',(0.,0.,1.));
#610=DIRECTION('',(1.,0.,0.));
#611=AXIS2_PLACEMENT_3D('',#608,#609,#610);
#613=MAPPED_ITEM('',#612,#611);
#612=REPRESENTATION_MAP(#611,#16);
#614=APPLICATION_CONTEXT('Managed model based 3d engineering');
#615=APPLICATION_PROTOCOL_DEFINITION('international standard','ap242_managed_model_based_3d_engineering',2013,#614);
#616=PRODUCT_CONTEXT('',#614,'mechanical');
#617=PRODUCT_DEFINITION_CONTEXT('part definition',#614,'design');
#24=PRODUCT('6930 XEVT 160504R-AL K10 Sharp ground & polished inserts (ALU & non-ferrous materials)','6930 XEVT 160504R-AL K10 Sharp ground & polished inserts (ALU & non-ferrous materials)','',(#616));
#618=PRODUCT_RELATED_PRODUCT_CATEGORY('part','',(#24));
#619=PRODUCT_DEFINITION_FORMATION_WITH_SPECIFIED_SOURCE('','',#24,.NOT_KNOWN.);
#25=PRODUCT_DEFINITION('design','',#619,#617);
#23=PRODUCT_DEFINITION_SHAPE('','',#25);
#620=SHAPE_DEFINITION_REPRESENTATION(#23,#16);
#11=DRAUGHTING_MODEL('',(#613),#10);
#1=MECHANICAL_DESIGN_GEOMETRIC_PRESENTATION_REPRESENTATION('',(#26),#10);
ENDSEC;
END-ISO-10303-21;
