ISO-10303-21;
HEADER;

/* File generated by Alibre Version V27 */

FILE_DESCRIPTION(('HOOPS Exchange Step'),'2;1');

FILE_NAME('C:\\Users\\Gebruiker\\AppData\\Local\\Temp\\Alibre Design\\27.0.1.27039\\export-CA04BF42-EDF2-4F6C-B4AC-C7371210DDEB.stp',
'2024-08-15T09:13:45+02:00',
('Engineering'),
('Alibre'),
'HOOPS Exchange 2023.0',
'Alibre',
'Unknown authorisation');

FILE_SCHEMA( ('AP242_MANAGED_MODEL_BASED_3D_ENGINEERING_MIM_LF {1 0 10303 442 1 1 4 }') );

ENDSEC;

DATA;
#3=(NAMED_UNIT(*)PLANE_ANGLE_UNIT()SI_UNIT($,.RADIAN.));
#4=PLANE_ANGLE_MEASURE_WITH_UNIT(PLANE_ANGLE_MEASURE(0.0174532925),#3);
#5=(CONVERSION_BASED_UNIT('DEGREE',#4)NAMED_UNIT(#6)PLANE_ANGLE_UNIT());
#6=DIMENSIONAL_EXPONENTS(0.,0.,0.,0.,0.,0.,0.);
#7=(NAMED_UNIT(*)SI_UNIT($,.STERADIAN.)SOLID_ANGLE_UNIT());
#8=(LENGTH_UNIT()NAMED_UNIT(*)SI_UNIT(.MILLI.,.METRE.));
#9=UNCERTAINTY_MEASURE_WITH_UNIT(LENGTH_MEASURE(1.000000E-06),#8,'DISTANCE_ACCURACY_VALUE','Maximum Tolerance applied to model');
#10=(GEOMETRIC_REPRESENTATION_CONTEXT(3)GLOBAL_UNCERTAINTY_ASSIGNED_CONTEXT((#9))GLOBAL_UNIT_ASSIGNED_CONTEXT((#8,#5,#7))REPRESENTATION_CONTEXT('','6931 XEVT 160508R-AL K10 Sharp ground & polished inserts (ALU & non-ferrous materials)'));
#12=CARTESIAN_POINT('',(0.,0.,0.));
#13=DIRECTION('',(0.,0.,1.));
#14=DIRECTION('',(1.,0.,0.));
#15=AXIS2_PLACEMENT_3D('',#12,#13,#14);
#27=CARTESIAN_POINT('',(11.1,4.8,5.5));
#28=CARTESIAN_POINT('',(11.1,5.114159265,5.5));
#29=CARTESIAN_POINT('',(10.932344671,5.432344671,5.5));
#30=CARTESIAN_POINT('',(10.614159265,5.6,5.5));
#31=CARTESIAN_POINT('',(10.3,5.6,5.5));
#32=CARTESIAN_POINT('',(10.656,4.608,4.4));
#33=CARTESIAN_POINT('',(10.656,4.909592895,4.4));
#34=CARTESIAN_POINT('',(10.495050885,5.215050884,4.4));
#35=CARTESIAN_POINT('',(10.189592895,5.376,4.4));
#36=CARTESIAN_POINT('',(9.888000001,5.376,4.4));
#37=CARTESIAN_POINT('',(10.212,4.416,3.3));
#38=CARTESIAN_POINT('',(10.212,4.705026524,3.3));
#39=CARTESIAN_POINT('',(10.057757098,4.997757097,3.3));
#40=CARTESIAN_POINT('',(9.765026524,5.152,3.3));
#41=CARTESIAN_POINT('',(9.476000002,5.152,3.3));
#42=CARTESIAN_POINT('',(9.768,4.223999999,2.2));
#43=CARTESIAN_POINT('',(9.768,4.500460154,2.2));
#44=CARTESIAN_POINT('',(9.62046331,4.780463311,2.2));
#45=CARTESIAN_POINT('',(9.340460153,4.928,2.2));
#46=CARTESIAN_POINT('',(9.064,4.928,2.2));
#47=CARTESIAN_POINT('',(9.324,4.032,1.1));
#48=CARTESIAN_POINT('',(9.324,4.295893783,1.1));
#49=CARTESIAN_POINT('',(9.183169524,4.563169524,1.1));
#50=CARTESIAN_POINT('',(8.915893783,4.704,1.1));
#51=CARTESIAN_POINT('',(8.652,4.704,1.1));
#52=CARTESIAN_POINT('',(8.88,3.84,-0.));
#53=CARTESIAN_POINT('',(8.88,4.091327412,-0.));
#54=CARTESIAN_POINT('',(8.745875737,4.345875737,-0.));
#55=CARTESIAN_POINT('',(8.491327412,4.48,-0.));
#56=CARTESIAN_POINT('',(8.24,4.48,-0.));
#57=B_SPLINE_SURFACE_WITH_KNOTS('',5,4,((#27,#28,#29,#30,#31),(#32,#33,#34,#35,#36),(#37,#38,#39,#40,#41),(#42,#43,#44,#45,#46),(#47,#48,#49,#50,#51),(#52,#53,#54,#55,#56)),.UNSPECIFIED.,.F.,.F.,.U.,(6,6),(5,5),(0.,5.870676197),(1.256637061,2.513274123),.UNSPECIFIED.);
#58=CARTESIAN_POINT('',(8.88,3.84,-0.));
#59=VERTEX_POINT('',#58);
#60=CARTESIAN_POINT('',(8.24,4.48,-0.));
#61=VERTEX_POINT('',#60);
#62=CARTESIAN_POINT('',(8.88,3.84,-0.));
#63=CARTESIAN_POINT('',(8.88,4.091327412,-0.));
#64=CARTESIAN_POINT('',(8.745875737,4.345875737,-0.));
#65=CARTESIAN_POINT('',(8.491327412,4.48,-0.));
#66=CARTESIAN_POINT('',(8.24,4.48,-0.));
#67=B_SPLINE_CURVE_WITH_KNOTS('',4,(#62,#63,#64,#65,#66),.UNSPECIFIED.,.F.,.F.,(5,5),(1.256637061,2.513274123),.UNSPECIFIED.);
#68=EDGE_CURVE('',#59,#61,#67,.T.);
#69=ORIENTED_EDGE('',*,*,#68,.T.);
#70=CARTESIAN_POINT('',(10.3,5.6,5.5));
#71=VERTEX_POINT('',#70);
#72=CARTESIAN_POINT('',(10.3,5.6,5.5));
#73=CARTESIAN_POINT('',(9.888000001,5.376,4.4));
#74=CARTESIAN_POINT('',(9.476000002,5.152,3.3));
#75=CARTESIAN_POINT('',(9.064,4.928,2.2));
#76=CARTESIAN_POINT('',(8.652,4.704,1.1));
#77=CARTESIAN_POINT('',(8.24,4.48,-0.));
#78=B_SPLINE_CURVE_WITH_KNOTS('',5,(#72,#73,#74,#75,#76,#77),.UNSPECIFIED.,.F.,.F.,(6,6),(0.,5.870676197),.UNSPECIFIED.);
#79=EDGE_CURVE('',#71,#61,#78,.T.);
#80=ORIENTED_EDGE('',*,*,#79,.F.);
#81=CARTESIAN_POINT('',(11.1,4.8,5.5));
#82=VERTEX_POINT('',#81);
#83=CARTESIAN_POINT('',(11.1,4.8,5.5));
#84=CARTESIAN_POINT('',(11.1,5.114159265,5.5));
#85=CARTESIAN_POINT('',(10.932344671,5.432344671,5.5));
#86=CARTESIAN_POINT('',(10.614159265,5.6,5.5));
#87=CARTESIAN_POINT('',(10.3,5.6,5.5));
#88=B_SPLINE_CURVE_WITH_KNOTS('',4,(#83,#84,#85,#86,#87),.UNSPECIFIED.,.F.,.F.,(5,5),(1.256637061,2.513274123),.UNSPECIFIED.);
#89=EDGE_CURVE('',#82,#71,#88,.T.);
#90=ORIENTED_EDGE('',*,*,#89,.F.);
#91=CARTESIAN_POINT('',(11.1,4.8,5.5));
#92=CARTESIAN_POINT('',(10.656,4.608,4.4));
#93=CARTESIAN_POINT('',(10.212,4.416,3.3));
#94=CARTESIAN_POINT('',(9.768,4.223999999,2.2));
#95=CARTESIAN_POINT('',(9.324,4.032,1.1));
#96=CARTESIAN_POINT('',(8.88,3.84,-0.));
#97=B_SPLINE_CURVE_WITH_KNOTS('',5,(#91,#92,#93,#94,#95,#96),.UNSPECIFIED.,.F.,.F.,(6,6),(0.,5.870676197),.UNSPECIFIED.);
#98=EDGE_CURVE('',#82,#59,#97,.T.);
#99=ORIENTED_EDGE('',*,*,#98,.T.);
#100=EDGE_LOOP('',(#69,#80,#90,#99));
#101=FACE_BOUND('',#100,.T.);
#102=ADVANCED_FACE('CUT',(#101),#57,.T.);
#103=CARTESIAN_POINT('',(9.99,3.825,2.75));
#104=DIRECTION('',(0.92730937,-0.,-0.374295782));
#105=DIRECTION('',(-0.371416145,-0.123805382,-0.920175133));
#106=AXIS2_PLACEMENT_3D('',#103,#104,#105);
#107=PLANE('',#106);
#108=CARTESIAN_POINT('',(8.88,2.96,-0.));
#109=VERTEX_POINT('',#108);
#110=CARTESIAN_POINT('',(8.88,2.96,-0.));
#111=DIRECTION('',(-0.,1.,-0.));
#112=VECTOR('',#111,0.88);
#113=LINE('',#110,#112);
#114=EDGE_CURVE('',#109,#59,#113,.T.);
#115=ORIENTED_EDGE('',*,*,#114,.T.);
#116=ORIENTED_EDGE('',*,*,#98,.F.);
#117=CARTESIAN_POINT('',(11.1,3.7,5.5));
#118=VERTEX_POINT('',#117);
#119=CARTESIAN_POINT('',(11.1,3.7,5.5));
#120=DIRECTION('',(-0.,1.,0.));
#121=VECTOR('',#120,1.1);
#122=LINE('',#119,#121);
#123=EDGE_CURVE('',#118,#82,#122,.T.);
#124=ORIENTED_EDGE('',*,*,#123,.F.);
#125=CARTESIAN_POINT('',(11.1,3.7,5.5));
#126=DIRECTION('',(-0.371416145,-0.123805382,-0.920175133));
#127=VECTOR('',#126,5.977123054);
#128=LINE('',#125,#127);
#129=EDGE_CURVE('',#118,#109,#128,.T.);
#130=ORIENTED_EDGE('',*,*,#129,.T.);
#131=EDGE_LOOP('',(#115,#116,#124,#130));
#132=FACE_BOUND('',#131,.T.);
#133=ADVANCED_FACE('CUT',(#132),#107,.T.);
#134=CARTESIAN_POINT('',(2.43,5.04,2.75));
#135=DIRECTION('',(-0.,0.979889453,-0.199541125));
#136=DIRECTION('',(-0.344541345,-0.18732345,-0.919891943));
#137=AXIS2_PLACEMENT_3D('',#134,#135,#136);
#138=PLANE('',#137);
#139=CARTESIAN_POINT('',(-3.92,4.48,-0.));
#140=VERTEX_POINT('',#139);
#141=CARTESIAN_POINT('',(8.24,4.48,-0.));
#142=DIRECTION('',(-1.,-0.,0.));
#143=VECTOR('',#142,12.16);
#144=LINE('',#141,#143);
#145=EDGE_CURVE('',#61,#140,#144,.T.);
#146=ORIENTED_EDGE('',*,*,#145,.T.);
#147=CARTESIAN_POINT('',(-4.9,5.6,5.5));
#148=VERTEX_POINT('',#147);
#149=CARTESIAN_POINT('',(-4.9,5.6,5.5));
#150=DIRECTION('',(0.17199654,-0.196567474,-0.965286703));
#151=VECTOR('',#150,5.697789045);
#152=LINE('',#149,#151);
#153=EDGE_CURVE('',#148,#140,#152,.T.);
#154=ORIENTED_EDGE('',*,*,#153,.F.);
#155=CARTESIAN_POINT('',(10.3,5.6,5.5));
#156=DIRECTION('',(-1.,-0.,0.));
#157=VECTOR('',#156,15.2);
#158=LINE('',#155,#157);
#159=EDGE_CURVE('',#71,#148,#158,.T.);
#160=ORIENTED_EDGE('',*,*,#159,.F.);
#161=ORIENTED_EDGE('',*,*,#79,.T.);
#162=EDGE_LOOP('',(#146,#154,#160,#161));
#163=FACE_BOUND('',#162,.T.);
#164=ADVANCED_FACE('CUT',(#163),#138,.T.);
#165=CARTESIAN_POINT('',(7.49831812,-0.688952153,2.75));
#166=DIRECTION('',(0.82007995,-0.5084356,-0.26260639));
#167=DIRECTION('',(-0.19491358,0.183283634,-0.96354336));
#168=AXIS2_PLACEMENT_3D('',#165,#166,#167);
#169=PLANE('',#168);
#170=CARTESIAN_POINT('',(4.450343325,-4.184803828,0.));
#171=VERTEX_POINT('',#170);
#172=CARTESIAN_POINT('',(4.450343325,-4.184803828,-0.));
#173=DIRECTION('',(0.526929212,0.849909175,-0.));
#174=VECTOR('',#173,8.406549827);
#175=LINE('',#172,#174);
#176=EDGE_CURVE('',#171,#109,#175,.T.);
#177=ORIENTED_EDGE('',*,*,#176,.T.);
#178=ORIENTED_EDGE('',*,*,#129,.F.);
#179=CARTESIAN_POINT('',(5.562929156,-5.231004785,5.5));
#180=VERTEX_POINT('',#179);
#181=CARTESIAN_POINT('',(5.562929156,-5.231004785,5.5));
#182=DIRECTION('',(0.526929212,0.849909175,-0.));
#183=VECTOR('',#182,10.508187284);
#184=LINE('',#181,#183);
#185=EDGE_CURVE('',#180,#118,#184,.T.);
#186=ORIENTED_EDGE('',*,*,#185,.F.);
#187=CARTESIAN_POINT('',(5.562929156,-5.231004785,5.5));
#188=DIRECTION('',(-0.19491358,0.183283634,-0.96354336));
#189=VECTOR('',#188,5.708098079);
#190=LINE('',#187,#189);
#191=EDGE_CURVE('',#180,#171,#190,.T.);
#192=ORIENTED_EDGE('',*,*,#191,.T.);
#193=EDGE_LOOP('',(#177,#178,#186,#192));
#194=FACE_BOUND('',#193,.T.);
#195=ADVANCED_FACE('CUT',(#194),#169,.T.);
#196=CARTESIAN_POINT('',(4.9,-5.6,5.5));
#197=CARTESIAN_POINT('',(5.098083516,-5.6,5.5));
#198=CARTESIAN_POINT('',(5.296691197,-5.532687185,5.5));
#199=CARTESIAN_POINT('',(5.458553165,-5.399357783,5.5));
#200=CARTESIAN_POINT('',(5.562929156,-5.231004785,5.5));
#201=CARTESIAN_POINT('',(4.704,-5.376,4.4));
#202=CARTESIAN_POINT('',(4.894160176,-5.376,4.4));
#203=CARTESIAN_POINT('',(5.084823549,-5.311379697,4.4));
#204=CARTESIAN_POINT('',(5.240211039,-5.183383472,4.4));
#205=CARTESIAN_POINT('',(5.34041199,-5.021764594,4.4));
#206=CARTESIAN_POINT('',(4.508000001,-5.152000001,3.3));
#207=CARTESIAN_POINT('',(4.690236835,-5.152,3.3));
#208=CARTESIAN_POINT('',(4.872955901,-5.09007221,3.3));
#209=CARTESIAN_POINT('',(5.021868913,-4.96740916,3.3));
#210=CARTESIAN_POINT('',(5.117894824,-4.812524402,3.3));
#211=CARTESIAN_POINT('',(4.312,-4.928,2.2));
#212=CARTESIAN_POINT('',(4.486313494,-4.928,2.2));
#213=CARTESIAN_POINT('',(4.661088254,-4.868764723,2.2));
#214=CARTESIAN_POINT('',(4.803526785,-4.751434849,2.2));
#215=CARTESIAN_POINT('',(4.895377658,-4.603284211,2.2));
#216=CARTESIAN_POINT('',(4.116,-4.704,1.1));
#217=CARTESIAN_POINT('',(4.282390153,-4.704,1.1));
#218=CARTESIAN_POINT('',(4.449220606,-4.647457235,1.1));
#219=CARTESIAN_POINT('',(4.585184659,-4.535460538,1.1));
#220=CARTESIAN_POINT('',(4.672860491,-4.39404402,1.1));
#221=CARTESIAN_POINT('',(3.92,-4.48,-0.));
#222=CARTESIAN_POINT('',(4.078466813,-4.48,-0.));
#223=CARTESIAN_POINT('',(4.237352958,-4.426149748,-0.));
#224=CARTESIAN_POINT('',(4.366842532,-4.319486226,-0.));
#225=CARTESIAN_POINT('',(4.450343325,-4.184803828,-0.));
#226=B_SPLINE_SURFACE_WITH_KNOTS('',5,4,((#196,#197,#198,#199,#200),(#201,#202,#203,#204,#205),(#206,#207,#208,#209,#210),(#211,#212,#213,#214,#215),(#216,#217,#218,#219,#220),(#221,#222,#223,#224,#225)),.UNSPECIFIED.,.F.,.F.,.U.,(6,6),(5,5),(0.,5.870676197),(0.,0.792334064),.UNSPECIFIED.);
#227=CARTESIAN_POINT('',(3.92,-4.48,-0.));
#228=VERTEX_POINT('',#227);
#229=CARTESIAN_POINT('',(3.92,-4.48,-0.));
#230=CARTESIAN_POINT('',(4.078466813,-4.48,-0.));
#231=CARTESIAN_POINT('',(4.237352958,-4.426149748,-0.));
#232=CARTESIAN_POINT('',(4.366842532,-4.319486226,-0.));
#233=CARTESIAN_POINT('',(4.450343325,-4.184803828,-0.));
#234=B_SPLINE_CURVE_WITH_KNOTS('',4,(#229,#230,#231,#232,#233),.UNSPECIFIED.,.F.,.F.,(5,5),(0.,0.792334064),.UNSPECIFIED.);
#235=EDGE_CURVE('',#228,#171,#234,.T.);
#236=ORIENTED_EDGE('',*,*,#235,.T.);
#237=ORIENTED_EDGE('',*,*,#191,.F.);
#238=CARTESIAN_POINT('',(4.9,-5.6,5.5));
#239=VERTEX_POINT('',#238);
#240=CARTESIAN_POINT('',(4.9,-5.6,5.5));
#241=CARTESIAN_POINT('',(5.098083516,-5.6,5.5));
#242=CARTESIAN_POINT('',(5.296691197,-5.532687185,5.5));
#243=CARTESIAN_POINT('',(5.458553165,-5.399357783,5.5));
#244=CARTESIAN_POINT('',(5.562929156,-5.231004785,5.5));
#245=B_SPLINE_CURVE_WITH_KNOTS('',4,(#240,#241,#242,#243,#244),.UNSPECIFIED.,.F.,.F.,(5,5),(0.,0.792334064),.UNSPECIFIED.);
#246=EDGE_CURVE('',#239,#180,#245,.T.);
#247=ORIENTED_EDGE('',*,*,#246,.F.);
#248=CARTESIAN_POINT('',(4.9,-5.6,5.5));
#249=CARTESIAN_POINT('',(4.704,-5.376,4.4));
#250=CARTESIAN_POINT('',(4.508000001,-5.152000001,3.3));
#251=CARTESIAN_POINT('',(4.312,-4.928,2.2));
#252=CARTESIAN_POINT('',(4.116,-4.704,1.1));
#253=CARTESIAN_POINT('',(3.92,-4.48,-0.));
#254=B_SPLINE_CURVE_WITH_KNOTS('',5,(#248,#249,#250,#251,#252,#253),.UNSPECIFIED.,.F.,.F.,(6,6),(0.,5.870676197),.UNSPECIFIED.);
#255=EDGE_CURVE('',#239,#228,#254,.T.);
#256=ORIENTED_EDGE('',*,*,#255,.T.);
#257=EDGE_LOOP('',(#236,#237,#247,#256));
#258=FACE_BOUND('',#257,.T.);
#259=ADVANCED_FACE('CUT',(#258),#226,.T.);
#260=CARTESIAN_POINT('',(-2.43,-5.04,2.75));
#261=DIRECTION('',(-0.,-0.979889453,-0.199541125));
#262=DIRECTION('',(0.344541346,0.18732345,-0.919891943));
#263=AXIS2_PLACEMENT_3D('',#260,#261,#262);
#264=PLANE('',#263);
#265=CARTESIAN_POINT('',(-8.24,-4.48,-0.));
#266=VERTEX_POINT('',#265);
#267=CARTESIAN_POINT('',(-8.24,-4.48,-0.));
#268=DIRECTION('',(1.,0.,0.));
#269=VECTOR('',#268,12.16);
#270=LINE('',#267,#269);
#271=EDGE_CURVE('',#266,#228,#270,.T.);
#272=ORIENTED_EDGE('',*,*,#271,.T.);
#273=ORIENTED_EDGE('',*,*,#255,.F.);
#274=CARTESIAN_POINT('',(-10.3,-5.6,5.5));
#275=VERTEX_POINT('',#274);
#276=CARTESIAN_POINT('',(-10.3,-5.6,5.5));
#277=DIRECTION('',(1.,0.,-0.));
#278=VECTOR('',#277,15.2);
#279=LINE('',#276,#278);
#280=EDGE_CURVE('',#275,#239,#279,.T.);
#281=ORIENTED_EDGE('',*,*,#280,.F.);
#282=CARTESIAN_POINT('',(-10.3,-5.6,5.5));
#283=DIRECTION('',(0.344541346,0.18732345,-0.919891943));
#284=VECTOR('',#283,5.978963121);
#285=LINE('',#282,#284);
#286=EDGE_CURVE('',#275,#266,#285,.T.);
#287=ORIENTED_EDGE('',*,*,#286,.T.);
#288=EDGE_LOOP('',(#272,#273,#281,#287));
#289=FACE_BOUND('',#288,.T.);
#290=ADVANCED_FACE('CUT',(#289),#264,.T.);
#291=CARTESIAN_POINT('',(-11.1,-4.8,5.5));
#292=CARTESIAN_POINT('',(-11.1,-5.114159265,5.5));
#293=CARTESIAN_POINT('',(-10.932344671,-5.432344671,5.5));
#294=CARTESIAN_POINT('',(-10.614159265,-5.6,5.5));
#295=CARTESIAN_POINT('',(-10.3,-5.6,5.5));
#296=CARTESIAN_POINT('',(-10.656,-4.608,4.4));
#297=CARTESIAN_POINT('',(-10.656,-4.909592895,4.4));
#298=CARTESIAN_POINT('',(-10.495050885,-5.215050884,4.4));
#299=CARTESIAN_POINT('',(-10.189592895,-5.376,4.4));
#300=CARTESIAN_POINT('',(-9.888,-5.376,4.4));
#301=CARTESIAN_POINT('',(-10.212,-4.416,3.3));
#302=CARTESIAN_POINT('',(-10.212,-4.705026524,3.3));
#303=CARTESIAN_POINT('',(-10.057757098,-4.997757097,3.3));
#304=CARTESIAN_POINT('',(-9.765026524,-5.152,3.3));
#305=CARTESIAN_POINT('',(-9.476,-5.152,3.3));
#306=CARTESIAN_POINT('',(-9.768,-4.224,2.2));
#307=CARTESIAN_POINT('',(-9.768,-4.500460154,2.2));
#308=CARTESIAN_POINT('',(-9.62046331,-4.780463311,2.2));
#309=CARTESIAN_POINT('',(-9.340460153,-4.928,2.2));
#310=CARTESIAN_POINT('',(-9.064,-4.928,2.2));
#311=CARTESIAN_POINT('',(-9.324,-4.032,1.1));
#312=CARTESIAN_POINT('',(-9.324,-4.295893783,1.1));
#313=CARTESIAN_POINT('',(-9.183169524,-4.563169524,1.1));
#314=CARTESIAN_POINT('',(-8.915893783,-4.704,1.1));
#315=CARTESIAN_POINT('',(-8.652,-4.704,1.1));
#316=CARTESIAN_POINT('',(-8.88,-3.84,-0.));
#317=CARTESIAN_POINT('',(-8.88,-4.091327412,-0.));
#318=CARTESIAN_POINT('',(-8.745875737,-4.345875737,-0.));
#319=CARTESIAN_POINT('',(-8.491327412,-4.48,-0.));
#320=CARTESIAN_POINT('',(-8.24,-4.48,-0.));
#321=B_SPLINE_SURFACE_WITH_KNOTS('',5,4,((#291,#292,#293,#294,#295),(#296,#297,#298,#299,#300),(#301,#302,#303,#304,#305),(#306,#307,#308,#309,#310),(#311,#312,#313,#314,#315),(#316,#317,#318,#319,#320)),.UNSPECIFIED.,.F.,.F.,.U.,(6,6),(5,5),(0.,5.870676197),(3.769911184,5.026548246),.UNSPECIFIED.);
#322=CARTESIAN_POINT('',(-8.88,-3.84,-0.));
#323=VERTEX_POINT('',#322);
#324=CARTESIAN_POINT('',(-8.88,-3.84,-0.));
#325=CARTESIAN_POINT('',(-8.88,-4.091327412,-0.));
#326=CARTESIAN_POINT('',(-8.745875737,-4.345875737,-0.));
#327=CARTESIAN_POINT('',(-8.491327412,-4.48,-0.));
#328=CARTESIAN_POINT('',(-8.24,-4.48,-0.));
#329=B_SPLINE_CURVE_WITH_KNOTS('',4,(#324,#325,#326,#327,#328),.UNSPECIFIED.,.F.,.F.,(5,5),(3.769911184,5.026548246),.UNSPECIFIED.);
#330=EDGE_CURVE('',#323,#266,#329,.T.);
#331=ORIENTED_EDGE('',*,*,#330,.T.);
#332=ORIENTED_EDGE('',*,*,#286,.F.);
#333=CARTESIAN_POINT('',(-11.1,-4.8,5.5));
#334=VERTEX_POINT('',#333);
#335=CARTESIAN_POINT('',(-11.1,-4.8,5.5));
#336=CARTESIAN_POINT('',(-11.1,-5.114159265,5.5));
#337=CARTESIAN_POINT('',(-10.932344671,-5.432344671,5.5));
#338=CARTESIAN_POINT('',(-10.614159265,-5.6,5.5));
#339=CARTESIAN_POINT('',(-10.3,-5.6,5.5));
#340=B_SPLINE_CURVE_WITH_KNOTS('',4,(#335,#336,#337,#338,#339),.UNSPECIFIED.,.F.,.F.,(5,5),(3.769911184,5.026548246),.UNSPECIFIED.);
#341=EDGE_CURVE('',#334,#275,#340,.T.);
#342=ORIENTED_EDGE('',*,*,#341,.F.);
#343=CARTESIAN_POINT('',(-11.1,-4.8,5.5));
#344=CARTESIAN_POINT('',(-10.656,-4.608,4.4));
#345=CARTESIAN_POINT('',(-10.212,-4.416,3.3));
#346=CARTESIAN_POINT('',(-9.768,-4.224,2.2));
#347=CARTESIAN_POINT('',(-9.324,-4.032,1.1));
#348=CARTESIAN_POINT('',(-8.88,-3.84,-0.));
#349=B_SPLINE_CURVE_WITH_KNOTS('',5,(#343,#344,#345,#346,#347,#348),.UNSPECIFIED.,.F.,.F.,(6,6),(0.,5.870676197),.UNSPECIFIED.);
#350=EDGE_CURVE('',#334,#323,#349,.T.);
#351=ORIENTED_EDGE('',*,*,#350,.T.);
#352=EDGE_LOOP('',(#331,#332,#342,#351));
#353=FACE_BOUND('',#352,.T.);
#354=ADVANCED_FACE('CUT',(#353),#321,.T.);
#355=CARTESIAN_POINT('',(-9.99,-3.825,2.75));
#356=DIRECTION('',(-0.92730937,-0.,-0.374295782));
#357=DIRECTION('',(0.371416145,0.123805382,-0.920175133));
#358=AXIS2_PLACEMENT_3D('',#355,#356,#357);
#359=PLANE('',#358);
#360=CARTESIAN_POINT('',(-8.88,-2.96,-0.));
#361=VERTEX_POINT('',#360);
#362=CARTESIAN_POINT('',(-8.88,-2.96,-0.));
#363=DIRECTION('',(-0.,-1.,-0.));
#364=VECTOR('',#363,0.88);
#365=LINE('',#362,#364);
#366=EDGE_CURVE('',#361,#323,#365,.T.);
#367=ORIENTED_EDGE('',*,*,#366,.T.);
#368=ORIENTED_EDGE('',*,*,#350,.F.);
#369=CARTESIAN_POINT('',(-11.1,-3.7,5.5));
#370=VERTEX_POINT('',#369);
#371=CARTESIAN_POINT('',(-11.1,-3.7,5.5));
#372=DIRECTION('',(0.,-1.,0.));
#373=VECTOR('',#372,1.1);
#374=LINE('',#371,#373);
#375=EDGE_CURVE('',#370,#334,#374,.T.);
#376=ORIENTED_EDGE('',*,*,#375,.F.);
#377=CARTESIAN_POINT('',(-11.1,-3.7,5.5));
#378=DIRECTION('',(0.371416145,0.123805382,-0.920175133));
#379=VECTOR('',#378,5.977123054);
#380=LINE('',#377,#379);
#381=EDGE_CURVE('',#370,#361,#380,.T.);
#382=ORIENTED_EDGE('',*,*,#381,.T.);
#383=EDGE_LOOP('',(#367,#368,#376,#382));
#384=FACE_BOUND('',#383,.T.);
#385=ADVANCED_FACE('CUT',(#384),#359,.T.);
#386=CARTESIAN_POINT('',(-7.49831812,0.688952153,2.75));
#387=DIRECTION('',(-0.82007995,0.5084356,-0.26260639));
#388=DIRECTION('',(0.19491358,-0.183283634,-0.96354336));
#389=AXIS2_PLACEMENT_3D('',#386,#387,#388);
#390=PLANE('',#389);
#391=CARTESIAN_POINT('',(-4.450343325,4.184803828,0.));
#392=VERTEX_POINT('',#391);
#393=CARTESIAN_POINT('',(-4.450343325,4.184803828,-0.));
#394=DIRECTION('',(-0.526929212,-0.849909175,0.));
#395=VECTOR('',#394,8.406549827);
#396=LINE('',#393,#395);
#397=EDGE_CURVE('',#392,#361,#396,.T.);
#398=ORIENTED_EDGE('',*,*,#397,.T.);
#399=ORIENTED_EDGE('',*,*,#381,.F.);
#400=CARTESIAN_POINT('',(-5.562929156,5.231004785,5.5));
#401=VERTEX_POINT('',#400);
#402=CARTESIAN_POINT('',(-5.562929156,5.231004785,5.5));
#403=DIRECTION('',(-0.526929212,-0.849909175,0.));
#404=VECTOR('',#403,10.508187284);
#405=LINE('',#402,#404);
#406=EDGE_CURVE('',#401,#370,#405,.T.);
#407=ORIENTED_EDGE('',*,*,#406,.F.);
#408=CARTESIAN_POINT('',(-5.562929156,5.231004785,5.5));
#409=DIRECTION('',(0.19491358,-0.183283634,-0.96354336));
#410=VECTOR('',#409,5.708098079);
#411=LINE('',#408,#410);
#412=EDGE_CURVE('',#401,#392,#411,.T.);
#413=ORIENTED_EDGE('',*,*,#412,.T.);
#414=EDGE_LOOP('',(#398,#399,#407,#413));
#415=FACE_BOUND('',#414,.T.);
#416=ADVANCED_FACE('CUT',(#415),#390,.T.);
#417=CARTESIAN_POINT('',(-4.9,5.6,5.5));
#418=CARTESIAN_POINT('',(-5.098083516,5.6,5.5));
#419=CARTESIAN_POINT('',(-5.296691197,5.532687185,5.5));
#420=CARTESIAN_POINT('',(-5.458553165,5.399357783,5.5));
#421=CARTESIAN_POINT('',(-5.562929156,5.231004785,5.5));
#422=CARTESIAN_POINT('',(-4.704,5.376,4.4));
#423=CARTESIAN_POINT('',(-4.894160176,5.376,4.4));
#424=CARTESIAN_POINT('',(-5.084823549,5.311379697,4.4));
#425=CARTESIAN_POINT('',(-5.240211039,5.183383472,4.4));
#426=CARTESIAN_POINT('',(-5.34041199,5.021764594,4.4));
#427=CARTESIAN_POINT('',(-4.508000001,5.152,3.3));
#428=CARTESIAN_POINT('',(-4.690236835,5.152,3.3));
#429=CARTESIAN_POINT('',(-4.872955901,5.09007221,3.3));
#430=CARTESIAN_POINT('',(-5.021868913,4.96740916,3.3));
#431=CARTESIAN_POINT('',(-5.117894824,4.812524403,3.3));
#432=CARTESIAN_POINT('',(-4.312,4.928,2.2));
#433=CARTESIAN_POINT('',(-4.486313494,4.928,2.2));
#434=CARTESIAN_POINT('',(-4.661088253,4.868764723,2.2));
#435=CARTESIAN_POINT('',(-4.803526786,4.751434849,2.2));
#436=CARTESIAN_POINT('',(-4.895377658,4.603284211,2.2));
#437=CARTESIAN_POINT('',(-4.116,4.704,1.1));
#438=CARTESIAN_POINT('',(-4.282390153,4.704,1.1));
#439=CARTESIAN_POINT('',(-4.449220606,4.647457235,1.1));
#440=CARTESIAN_POINT('',(-4.585184659,4.535460538,1.1));
#441=CARTESIAN_POINT('',(-4.672860491,4.39404402,1.1));
#442=CARTESIAN_POINT('',(-3.92,4.48,-0.));
#443=CARTESIAN_POINT('',(-4.078466813,4.48,-0.));
#444=CARTESIAN_POINT('',(-4.237352958,4.426149748,-0.));
#445=CARTESIAN_POINT('',(-4.366842532,4.319486226,-0.));
#446=CARTESIAN_POINT('',(-4.450343325,4.184803828,-0.));
#447=B_SPLINE_SURFACE_WITH_KNOTS('',5,4,((#417,#418,#419,#420,#421),(#422,#423,#424,#425,#426),(#427,#428,#429,#430,#431),(#432,#433,#434,#435,#436),(#437,#438,#439,#440,#441),(#442,#443,#444,#445,#446)),.UNSPECIFIED.,.F.,.F.,.U.,(6,6),(5,5),(0.,5.870676197),(2.45044227,3.242776334),.UNSPECIFIED.);
#448=CARTESIAN_POINT('',(-3.92,4.48,-0.));
#449=CARTESIAN_POINT('',(-4.078466813,4.48,-0.));
#450=CARTESIAN_POINT('',(-4.237352958,4.426149748,-0.));
#451=CARTESIAN_POINT('',(-4.366842532,4.319486226,-0.));
#452=CARTESIAN_POINT('',(-4.450343325,4.184803828,-0.));
#453=B_SPLINE_CURVE_WITH_KNOTS('',4,(#448,#449,#450,#451,#452),.UNSPECIFIED.,.F.,.F.,(5,5),(2.45044227,3.242776334),.UNSPECIFIED.);
#454=EDGE_CURVE('',#140,#392,#453,.T.);
#455=ORIENTED_EDGE('',*,*,#454,.T.);
#456=ORIENTED_EDGE('',*,*,#412,.F.);
#457=CARTESIAN_POINT('',(-4.9,5.6,5.5));
#458=CARTESIAN_POINT('',(-5.098083516,5.6,5.5));
#459=CARTESIAN_POINT('',(-5.296691197,5.532687185,5.5));
#460=CARTESIAN_POINT('',(-5.458553165,5.399357783,5.5));
#461=CARTESIAN_POINT('',(-5.562929156,5.231004785,5.5));
#462=B_SPLINE_CURVE_WITH_KNOTS('',4,(#457,#458,#459,#460,#461),.UNSPECIFIED.,.F.,.F.,(5,5),(2.45044227,3.242776334),.UNSPECIFIED.);
#463=EDGE_CURVE('',#148,#401,#462,.T.);
#464=ORIENTED_EDGE('',*,*,#463,.F.);
#465=ORIENTED_EDGE('',*,*,#153,.T.);
#466=EDGE_LOOP('',(#455,#456,#464,#465));
#467=FACE_BOUND('',#466,.T.);
#468=ADVANCED_FACE('CUT',(#467),#447,.T.);
#469=CARTESIAN_POINT('',(-0.,-0.,-0.));
#470=DIRECTION('',(0.,0.,-1.));
#471=DIRECTION('',(0.954518793,0.298150758,0.));
#472=AXIS2_PLACEMENT_3D('',#469,#470,#471);
#473=PLANE('',#472);
#474=ORIENTED_EDGE('',*,*,#114,.F.);
#475=ORIENTED_EDGE('',*,*,#176,.F.);
#476=ORIENTED_EDGE('',*,*,#235,.F.);
#477=ORIENTED_EDGE('',*,*,#271,.F.);
#478=ORIENTED_EDGE('',*,*,#330,.F.);
#479=ORIENTED_EDGE('',*,*,#366,.F.);
#480=ORIENTED_EDGE('',*,*,#397,.F.);
#481=ORIENTED_EDGE('',*,*,#454,.F.);
#482=ORIENTED_EDGE('',*,*,#145,.F.);
#483=ORIENTED_EDGE('',*,*,#68,.F.);
#484=EDGE_LOOP('',(#474,#475,#476,#477,#478,#479,#480,#481,#482,#483));
#485=FACE_BOUND('',#484,.T.);
#486=CARTESIAN_POINT('',(0.,-2.5,-0.));
#487=VERTEX_POINT('',#486);
#488=CARTESIAN_POINT('',(0.,2.5,-0.));
#489=VERTEX_POINT('',#488);
#490=CARTESIAN_POINT('',(-0.,0.,-0.));
#491=DIRECTION('',(-0.,0.,1.));
#492=DIRECTION('',(1.,0.,0.));
#493=AXIS2_PLACEMENT_3D('',#490,#491,#492);
#494=CIRCLE('',#493,2.5);
#495=EDGE_CURVE('',#487,#489,#494,.T.);
#496=ORIENTED_EDGE('',*,*,#495,.T.);
#497=CARTESIAN_POINT('',(-0.,0.,-0.));
#498=DIRECTION('',(-0.,0.,1.));
#499=DIRECTION('',(1.,0.,0.));
#500=AXIS2_PLACEMENT_3D('',#497,#498,#499);
#501=CIRCLE('',#500,2.5);
#502=EDGE_CURVE('',#489,#487,#501,.T.);
#503=ORIENTED_EDGE('',*,*,#502,.T.);
#504=EDGE_LOOP('',(#496,#503));
#505=FACE_BOUND('',#504,.T.);
#506=ADVANCED_FACE('CUT',(#485,#505),#473,.T.);
#507=CARTESIAN_POINT('',(-0.,-0.,5.5));
#508=DIRECTION('',(0.,0.,-1.));
#509=DIRECTION('',(0.955093385,0.296304953,0.));
#510=AXIS2_PLACEMENT_3D('',#507,#508,#509);
#511=PLANE('',#510);
#512=ORIENTED_EDGE('',*,*,#89,.T.);
#513=ORIENTED_EDGE('',*,*,#159,.T.);
#514=ORIENTED_EDGE('',*,*,#463,.T.);
#515=ORIENTED_EDGE('',*,*,#406,.T.);
#516=ORIENTED_EDGE('',*,*,#375,.T.);
#517=ORIENTED_EDGE('',*,*,#341,.T.);
#518=ORIENTED_EDGE('',*,*,#280,.T.);
#519=ORIENTED_EDGE('',*,*,#246,.T.);
#520=ORIENTED_EDGE('',*,*,#185,.T.);
#521=ORIENTED_EDGE('',*,*,#123,.T.);
#522=EDGE_LOOP('',(#512,#513,#514,#515,#516,#517,#518,#519,#520,#521));
#523=FACE_BOUND('',#522,.T.);
#524=CARTESIAN_POINT('',(0.,-2.5,5.5));
#525=VERTEX_POINT('',#524);
#526=CARTESIAN_POINT('',(-0.,2.5,5.5));
#527=VERTEX_POINT('',#526);
#528=CARTESIAN_POINT('',(0.,-0.,5.5));
#529=DIRECTION('',(0.,0.,-1.));
#530=DIRECTION('',(1.,0.,0.));
#531=AXIS2_PLACEMENT_3D('',#528,#529,#530);
#532=CIRCLE('',#531,2.5);
#533=EDGE_CURVE('',#525,#527,#532,.T.);
#534=ORIENTED_EDGE('',*,*,#533,.T.);
#535=CARTESIAN_POINT('',(-0.,0.,5.5));
#536=DIRECTION('',(0.,0.,-1.));
#537=DIRECTION('',(1.,0.,0.));
#538=AXIS2_PLACEMENT_3D('',#535,#536,#537);
#539=CIRCLE('',#538,2.5);
#540=EDGE_CURVE('',#527,#525,#539,.T.);
#541=ORIENTED_EDGE('',*,*,#540,.T.);
#542=EDGE_LOOP('',(#534,#541));
#543=FACE_BOUND('',#542,.T.);
#544=ADVANCED_FACE('CUT',(#523,#543),#511,.F.);
#545=CARTESIAN_POINT('',(0.,0.,10.));
#546=DIRECTION('',(0.,-0.,1.));
#547=DIRECTION('',(0.,-1.,-0.));
#548=AXIS2_PLACEMENT_3D('',#545,#546,#547);
#549=CYLINDRICAL_SURFACE('',#548,2.5);
#550=ORIENTED_EDGE('',*,*,#533,.F.);
#551=CARTESIAN_POINT('',(0.,-2.5,-0.));
#552=DIRECTION('',(-0.,0.,1.));
#553=VECTOR('',#552,5.5);
#554=LINE('',#551,#553);
#555=EDGE_CURVE('',#487,#525,#554,.T.);
#556=ORIENTED_EDGE('',*,*,#555,.F.);
#557=ORIENTED_EDGE('',*,*,#502,.F.);
#558=CARTESIAN_POINT('',(0.,2.5,-0.));
#559=DIRECTION('',(0.,0.,1.));
#560=VECTOR('',#559,5.5);
#561=LINE('',#558,#560);
#562=EDGE_CURVE('',#489,#527,#561,.T.);
#563=ORIENTED_EDGE('',*,*,#562,.T.);
#564=EDGE_LOOP('',(#550,#556,#557,#563));
#565=FACE_BOUND('',#564,.T.);
#566=ADVANCED_FACE('CUT',(#565),#549,.F.);
#567=CARTESIAN_POINT('',(0.,0.,10.));
#568=DIRECTION('',(0.,-0.,1.));
#569=DIRECTION('',(0.,-1.,-0.));
#570=AXIS2_PLACEMENT_3D('',#567,#568,#569);
#571=CYLINDRICAL_SURFACE('',#570,2.5);
#572=ORIENTED_EDGE('',*,*,#540,.F.);
#573=ORIENTED_EDGE('',*,*,#562,.F.);
#574=ORIENTED_EDGE('',*,*,#495,.F.);
#575=ORIENTED_EDGE('',*,*,#555,.T.);
#576=EDGE_LOOP('',(#572,#573,#574,#575));
#577=FACE_BOUND('',#576,.T.);
#578=ADVANCED_FACE('CUT',(#577),#571,.F.);
#579=CLOSED_SHELL('',(#102,#133,#164,#195,#259,#290,#354,#385,#416,#468,#506,#544,#566,#578));
#580=MANIFOLD_SOLID_BREP('CUT',#579);
#581=COLOUR_RGB('',0.800000012,0.800000012,0.800000012);
#582=FILL_AREA_STYLE_COLOUR('',#581);
#583=FILL_AREA_STYLE('',(#582));
#584=SURFACE_STYLE_FILL_AREA(#583);
#585=SURFACE_SIDE_STYLE('',(#584));
#586=SURFACE_STYLE_USAGE(.BOTH.,#585);
#587=PRESENTATION_STYLE_ASSIGNMENT((#586));
#26=STYLED_ITEM('',(#587),#580);
#588=INTEGER_REPRESENTATION_ITEM('ATTRIB_BOUNDING_BOX_ALGORITHM',3);
#589=ID_ATTRIBUTE('SA #590',#590);
#590=SHAPE_ASPECT('properties','',#23,.F.);
#591=GEOMETRIC_ITEM_SPECIFIC_USAGE('','properties',#590,#17,#580);
#592=PROPERTY_DEFINITION('ATTRIB_BOUNDING_BOX_ALGORITHM','',#590);
#593=REPRESENTATION('',(#588),#10);
#594=PROPERTY_DEFINITION_REPRESENTATION(#592,#593);
#595=GENERAL_PROPERTY('','ATTRIB_BOUNDING_BOX_ALGORITHM','');
#596=GENERAL_PROPERTY_ASSOCIATION('','',#595,#592);
#16=SHAPE_REPRESENTATION('6931 XEVT 160508R-AL K10 Sharp ground & polished inserts (ALU & non-ferrous materials)',(#15),#10);
#17=ADVANCED_BREP_SHAPE_REPRESENTATION('6931 XEVT 160508R-AL K10 Sharp ground & polished inserts (ALU & non-ferrous materials)',(#580),#10);
#604=SHAPE_REPRESENTATION_RELATIONSHIP('','',#16,#17);
#605=CARTESIAN_POINT('',(0.,0.,0.));
#606=DIRECTION('',(0.,0.,1.));
#607=DIRECTION('',(1.,0.,0.));
#608=AXIS2_PLACEMENT_3D('',#605,#606,#607);
#610=MAPPED_ITEM('',#609,#608);
#609=REPRESENTATION_MAP(#608,#16);
#611=APPLICATION_CONTEXT('Managed model based 3d engineering');
#612=APPLICATION_PROTOCOL_DEFINITION('international standard','ap242_managed_model_based_3d_engineering',2013,#611);
#613=PRODUCT_CONTEXT('',#611,'mechanical');
#614=PRODUCT_DEFINITION_CONTEXT('part definition',#611,'design');
#24=PRODUCT('6931 XEVT 160508R-AL K10 Sharp ground & polished inserts (ALU & non-ferrous materials)','6931 XEVT 160508R-AL K10 Sharp ground & polished inserts (ALU & non-ferrous materials)','',(#613));
#615=PRODUCT_RELATED_PRODUCT_CATEGORY('part','',(#24));
#616=PRODUCT_DEFINITION_FORMATION_WITH_SPECIFIED_SOURCE('','',#24,.NOT_KNOWN.);
#25=PRODUCT_DEFINITION('design','',#616,#614);
#23=PRODUCT_DEFINITION_SHAPE('','',#25);
#617=SHAPE_DEFINITION_REPRESENTATION(#23,#16);
#11=DRAUGHTING_MODEL('',(#610),#10);
#1=MECHANICAL_DESIGN_GEOMETRIC_PRESENTATION_REPRESENTATION('',(#26),#10);
ENDSEC;
END-ISO-10303-21;
