ISO-10303-21;
HEADER;

/* File generated by Alibre Version V28 */

FILE_DESCRIPTION(('HOOPS Exchange Step'),'2;1');

FILE_NAME('C:\\Users\\Gebruiker\\AppData\\Local\\Temp\\Alibre Design\\28.0.1.28098\\export-BDFB3586-4CEB-4E31-9944-BEDCF288A89B.stp',
'2025-01-11T17:55:48+01:00',
('Engineering'),
('Alibre'),
'HOOPS Exchange 2024.3',
'Alibre',
'Unknown authorisation');

FILE_SCHEMA( ('AP242_MANAGED_MODEL_BASED_3D_ENGINEERING_MIM_LF {1 0 10303 442 1 1 4 }') );

ENDSEC;

DATA;
#3=(NAMED_UNIT(*)PLANE_ANGLE_UNIT()SI_UNIT($,.RADIAN.));
#4=PLANE_ANGLE_MEASURE_WITH_UNIT(PLANE_ANGLE_MEASURE(0.0174532925),#3);
#5=(CONVERSION_BASED_UNIT('DEGREE',#4)NAMED_UNIT(#6)PLANE_ANGLE_UNIT());
#6=DIMENSIONAL_EXPONENTS(0.,0.,0.,0.,0.,0.,0.);
#7=(NAMED_UNIT(*)SI_UNIT($,.STERADIAN.)SOLID_ANGLE_UNIT());
#8=(LENGTH_UNIT()NAMED_UNIT(*)SI_UNIT(.MILLI.,.METRE.));
#9=UNCERTAINTY_MEASURE_WITH_UNIT(LENGTH_MEASURE(1.000000E-06),#8,'DISTANCE_ACCURACY_VALUE','Maximum Tolerance applied to model');
#10=(GEOMETRIC_REPRESENTATION_CONTEXT(3)GLOBAL_UNCERTAINTY_ASSIGNED_CONTEXT((#9))GLOBAL_UNIT_ASSIGNED_CONTEXT((#8,#5,#7))REPRESENTATION_CONTEXT('','8230 BF-FF 30 Ballscrew End Machining Floating side'));
#12=CARTESIAN_POINT('',(0.,0.,0.));
#13=DIRECTION('',(0.,0.,1.));
#14=DIRECTION('',(1.,0.,0.));
#15=AXIS2_PLACEMENT_3D('',#12,#13,#14);
#27=CARTESIAN_POINT('',(0.,0.,-3.25));
#28=DIRECTION('',(0.,0.,1.));
#29=DIRECTION('',(0.,-1.,0.));
#30=AXIS2_PLACEMENT_3D('',#27,#28,#29);
#31=CONICAL_SURFACE('',#30,14.95,45.);
#32=CARTESIAN_POINT('',(-0.,14.95,-3.25));
#33=VERTEX_POINT('',#32);
#34=CARTESIAN_POINT('',(0.,15.,-3.2));
#35=VERTEX_POINT('',#34);
#36=CARTESIAN_POINT('',(0.,14.95,-3.25));
#37=DIRECTION('',(0.,0.707106781,0.707106781));
#38=VECTOR('',#37,0.070710678);
#39=LINE('',#36,#38);
#40=EDGE_CURVE('',#33,#35,#39,.T.);
#41=ORIENTED_EDGE('',*,*,#40,.T.);
#42=CARTESIAN_POINT('',(-0.,-15.,-3.2));
#43=VERTEX_POINT('',#42);
#44=CARTESIAN_POINT('',(0.,0.,-3.2));
#45=DIRECTION('',(0.,0.,-1.));
#46=DIRECTION('',(0.,-1.,0.));
#47=AXIS2_PLACEMENT_3D('',#44,#45,#46);
#48=CIRCLE('',#47,15.);
#49=EDGE_CURVE('',#35,#43,#48,.T.);
#50=ORIENTED_EDGE('',*,*,#49,.T.);
#51=CARTESIAN_POINT('',(0.,0.,-3.2));
#52=DIRECTION('',(0.,0.,-1.));
#53=DIRECTION('',(0.,-1.,0.));
#54=AXIS2_PLACEMENT_3D('',#51,#52,#53);
#55=CIRCLE('',#54,15.);
#56=EDGE_CURVE('',#43,#35,#55,.T.);
#57=ORIENTED_EDGE('',*,*,#56,.T.);
#58=ORIENTED_EDGE('',*,*,#40,.F.);
#59=CARTESIAN_POINT('',(0.,0.,-3.25));
#60=DIRECTION('',(0.,0.,1.));
#61=DIRECTION('',(0.,-1.,0.));
#62=AXIS2_PLACEMENT_3D('',#59,#60,#61);
#63=CIRCLE('',#62,14.95);
#64=EDGE_CURVE('',#33,#33,#63,.T.);
#65=ORIENTED_EDGE('',*,*,#64,.T.);
#66=EDGE_LOOP('',(#41,#50,#57,#58,#65));
#67=FACE_BOUND('',#66,.T.);
#68=ADVANCED_FACE('',(#67),#31,.T.);
#69=CARTESIAN_POINT('',(0.,0.,-1.625));
#70=DIRECTION('',(0.,-0.,1.));
#71=DIRECTION('',(0.,1.,0.));
#72=AXIS2_PLACEMENT_3D('',#69,#70,#71);
#73=CYLINDRICAL_SURFACE('',#72,15.);
#74=CARTESIAN_POINT('',(-0.,-15.,-1.));
#75=VERTEX_POINT('',#74);
#76=CARTESIAN_POINT('',(-0.,-15.,-1.));
#77=DIRECTION('',(-0.,-0.,-1.));
#78=VECTOR('',#77,2.2);
#79=LINE('',#76,#78);
#80=EDGE_CURVE('',#75,#43,#79,.T.);
#81=ORIENTED_EDGE('',*,*,#80,.T.);
#82=ORIENTED_EDGE('',*,*,#49,.F.);
#83=ORIENTED_EDGE('',*,*,#56,.F.);
#84=ORIENTED_EDGE('',*,*,#80,.F.);
#85=CARTESIAN_POINT('',(-0.,15.,-1.));
#86=VERTEX_POINT('',#85);
#87=CARTESIAN_POINT('',(0.,-0.,-1.));
#88=DIRECTION('',(0.,-0.,1.));
#89=DIRECTION('',(0.,-1.,-0.));
#90=AXIS2_PLACEMENT_3D('',#87,#88,#89);
#91=CIRCLE('',#90,15.);
#92=EDGE_CURVE('',#86,#75,#91,.T.);
#93=ORIENTED_EDGE('',*,*,#92,.F.);
#94=CARTESIAN_POINT('',(0.,-0.,-1.));
#95=DIRECTION('',(0.,-0.,1.));
#96=DIRECTION('',(0.,-1.,-0.));
#97=AXIS2_PLACEMENT_3D('',#94,#95,#96);
#98=CIRCLE('',#97,15.);
#99=EDGE_CURVE('',#75,#86,#98,.T.);
#100=ORIENTED_EDGE('',*,*,#99,.F.);
#101=EDGE_LOOP('',(#81,#82,#83,#84,#93,#100));
#102=FACE_BOUND('',#101,.T.);
#103=ADVANCED_FACE('',(#102),#73,.T.);
#104=CARTESIAN_POINT('',(0.,14.65,-3.25));
#105=DIRECTION('',(0.,0.,-1.));
#106=DIRECTION('',(0.,-1.,0.));
#107=AXIS2_PLACEMENT_3D('',#104,#105,#106);
#108=PLANE('',#107);
#109=CARTESIAN_POINT('',(0.,14.3,-3.25));
#110=VERTEX_POINT('',#109);
#111=CARTESIAN_POINT('',(-0.,-14.3,-3.25));
#112=VERTEX_POINT('',#111);
#113=CARTESIAN_POINT('',(0.,0.,-3.25));
#114=DIRECTION('',(0.,-0.,1.));
#115=DIRECTION('',(0.,1.,0.));
#116=AXIS2_PLACEMENT_3D('',#113,#114,#115);
#117=CIRCLE('',#116,14.3);
#118=EDGE_CURVE('',#110,#112,#117,.T.);
#119=ORIENTED_EDGE('',*,*,#118,.T.);
#120=CARTESIAN_POINT('',(0.,0.,-3.25));
#121=DIRECTION('',(0.,-0.,1.));
#122=DIRECTION('',(0.,1.,0.));
#123=AXIS2_PLACEMENT_3D('',#120,#121,#122);
#124=CIRCLE('',#123,14.3);
#125=EDGE_CURVE('',#112,#110,#124,.T.);
#126=ORIENTED_EDGE('',*,*,#125,.T.);
#127=EDGE_LOOP('',(#119,#126));
#128=FACE_BOUND('',#127,.T.);
#129=ORIENTED_EDGE('',*,*,#64,.F.);
#130=EDGE_LOOP('',(#129));
#131=FACE_BOUND('',#130,.T.);
#132=ADVANCED_FACE('',(#128,#131),#108,.T.);
#133=CARTESIAN_POINT('',(0.,0.,-5.));
#134=DIRECTION('',(0.,0.,-1.));
#135=DIRECTION('',(0.,-1.,0.));
#136=AXIS2_PLACEMENT_3D('',#133,#134,#135);
#137=CONICAL_SURFACE('',#136,14.95,45.);
#138=CARTESIAN_POINT('',(0.,14.95,-5.));
#139=VERTEX_POINT('',#138);
#140=CARTESIAN_POINT('',(-0.,15.,-5.05));
#141=VERTEX_POINT('',#140);
#142=CARTESIAN_POINT('',(-0.,14.95,-5.));
#143=DIRECTION('',(-0.,0.707106781,-0.707106781));
#144=VECTOR('',#143,0.070710678);
#145=LINE('',#142,#144);
#146=EDGE_CURVE('',#139,#141,#145,.T.);
#147=ORIENTED_EDGE('',*,*,#146,.T.);
#148=CARTESIAN_POINT('',(-0.,-15.,-5.05));
#149=VERTEX_POINT('',#148);
#150=CARTESIAN_POINT('',(0.,0.,-5.05));
#151=DIRECTION('',(0.,0.,1.));
#152=DIRECTION('',(0.,-1.,0.));
#153=AXIS2_PLACEMENT_3D('',#150,#151,#152);
#154=CIRCLE('',#153,15.);
#155=EDGE_CURVE('',#141,#149,#154,.T.);
#156=ORIENTED_EDGE('',*,*,#155,.T.);
#157=CARTESIAN_POINT('',(0.,0.,-5.05));
#158=DIRECTION('',(0.,0.,1.));
#159=DIRECTION('',(0.,-1.,0.));
#160=AXIS2_PLACEMENT_3D('',#157,#158,#159);
#161=CIRCLE('',#160,15.);
#162=EDGE_CURVE('',#149,#141,#161,.T.);
#163=ORIENTED_EDGE('',*,*,#162,.T.);
#164=ORIENTED_EDGE('',*,*,#146,.F.);
#165=CARTESIAN_POINT('',(0.,0.,-5.));
#166=DIRECTION('',(0.,0.,-1.));
#167=DIRECTION('',(0.,-1.,0.));
#168=AXIS2_PLACEMENT_3D('',#165,#166,#167);
#169=CIRCLE('',#168,14.95);
#170=EDGE_CURVE('',#139,#139,#169,.T.);
#171=ORIENTED_EDGE('',*,*,#170,.T.);
#172=EDGE_LOOP('',(#147,#156,#163,#164,#171));
#173=FACE_BOUND('',#172,.T.);
#174=ADVANCED_FACE('',(#173),#137,.T.);
#175=CARTESIAN_POINT('',(0.,0.,-12.));
#176=DIRECTION('',(0.,-0.,1.));
#177=DIRECTION('',(0.,1.,0.));
#178=AXIS2_PLACEMENT_3D('',#175,#176,#177);
#179=CYLINDRICAL_SURFACE('',#178,15.);
#180=CARTESIAN_POINT('',(-0.,-15.,-19.));
#181=VERTEX_POINT('',#180);
#182=CARTESIAN_POINT('',(-0.,-15.,-5.05));
#183=DIRECTION('',(-0.,-0.,-1.));
#184=VECTOR('',#183,13.95);
#185=LINE('',#182,#184);
#186=EDGE_CURVE('',#149,#181,#185,.T.);
#187=ORIENTED_EDGE('',*,*,#186,.T.);
#188=CARTESIAN_POINT('',(0.,15.,-19.));
#189=VERTEX_POINT('',#188);
#190=CARTESIAN_POINT('',(0.,0.,-19.));
#191=DIRECTION('',(0.,-0.,1.));
#192=DIRECTION('',(0.,1.,0.));
#193=AXIS2_PLACEMENT_3D('',#190,#191,#192);
#194=CIRCLE('',#193,15.);
#195=EDGE_CURVE('',#181,#189,#194,.T.);
#196=ORIENTED_EDGE('',*,*,#195,.T.);
#197=CARTESIAN_POINT('',(0.,0.,-19.));
#198=DIRECTION('',(0.,-0.,1.));
#199=DIRECTION('',(0.,1.,0.));
#200=AXIS2_PLACEMENT_3D('',#197,#198,#199);
#201=CIRCLE('',#200,15.);
#202=EDGE_CURVE('',#189,#181,#201,.T.);
#203=ORIENTED_EDGE('',*,*,#202,.T.);
#204=ORIENTED_EDGE('',*,*,#186,.F.);
#205=ORIENTED_EDGE('',*,*,#155,.F.);
#206=ORIENTED_EDGE('',*,*,#162,.F.);
#207=EDGE_LOOP('',(#187,#196,#203,#204,#205,#206));
#208=FACE_BOUND('',#207,.T.);
#209=ADVANCED_FACE('',(#208),#179,.T.);
#210=CARTESIAN_POINT('',(0.,14.65,-5.));
#211=DIRECTION('',(0.,0.,1.));
#212=DIRECTION('',(0.,1.,0.));
#213=AXIS2_PLACEMENT_3D('',#210,#211,#212);
#214=PLANE('',#213);
#215=CARTESIAN_POINT('',(-0.,-14.3,-5.));
#216=VERTEX_POINT('',#215);
#217=CARTESIAN_POINT('',(0.,14.3,-5.));
#218=VERTEX_POINT('',#217);
#219=CARTESIAN_POINT('',(0.,0.,-5.));
#220=DIRECTION('',(0.,-0.,1.));
#221=DIRECTION('',(0.,1.,0.));
#222=AXIS2_PLACEMENT_3D('',#219,#220,#221);
#223=CIRCLE('',#222,14.3);
#224=EDGE_CURVE('',#216,#218,#223,.T.);
#225=ORIENTED_EDGE('',*,*,#224,.F.);
#226=CARTESIAN_POINT('',(0.,0.,-5.));
#227=DIRECTION('',(0.,-0.,1.));
#228=DIRECTION('',(0.,1.,0.));
#229=AXIS2_PLACEMENT_3D('',#226,#227,#228);
#230=CIRCLE('',#229,14.3);
#231=EDGE_CURVE('',#218,#216,#230,.T.);
#232=ORIENTED_EDGE('',*,*,#231,.F.);
#233=EDGE_LOOP('',(#225,#232));
#234=FACE_BOUND('',#233,.T.);
#235=ORIENTED_EDGE('',*,*,#170,.F.);
#236=EDGE_LOOP('',(#235));
#237=FACE_BOUND('',#236,.T.);
#238=ADVANCED_FACE('',(#234,#237),#214,.T.);
#239=CARTESIAN_POINT('',(0.,0.,-19.));
#240=DIRECTION('',(0.,0.,1.));
#241=DIRECTION('',(0.,-1.,0.));
#242=AXIS2_PLACEMENT_3D('',#239,#240,#241);
#243=CONICAL_SURFACE('',#242,15.,26.565051177);
#244=CARTESIAN_POINT('',(-0.,14.75,-19.5));
#245=VERTEX_POINT('',#244);
#246=CARTESIAN_POINT('',(0.,14.75,-19.5));
#247=DIRECTION('',(0.,0.447213595,0.894427191));
#248=VECTOR('',#247,0.559016994);
#249=LINE('',#246,#248);
#250=EDGE_CURVE('',#245,#189,#249,.T.);
#251=ORIENTED_EDGE('',*,*,#250,.T.);
#252=ORIENTED_EDGE('',*,*,#195,.F.);
#253=ORIENTED_EDGE('',*,*,#202,.F.);
#254=ORIENTED_EDGE('',*,*,#250,.F.);
#255=CARTESIAN_POINT('',(-0.,-14.75,-19.5));
#256=VERTEX_POINT('',#255);
#257=CARTESIAN_POINT('',(0.,0.,-19.5));
#258=DIRECTION('',(0.,0.,1.));
#259=DIRECTION('',(0.,-1.,0.));
#260=AXIS2_PLACEMENT_3D('',#257,#258,#259);
#261=CIRCLE('',#260,14.75);
#262=EDGE_CURVE('',#245,#256,#261,.T.);
#263=ORIENTED_EDGE('',*,*,#262,.T.);
#264=CARTESIAN_POINT('',(0.,0.,-19.5));
#265=DIRECTION('',(0.,0.,1.));
#266=DIRECTION('',(0.,-1.,0.));
#267=AXIS2_PLACEMENT_3D('',#264,#265,#266);
#268=CIRCLE('',#267,14.75);
#269=EDGE_CURVE('',#256,#245,#268,.T.);
#270=ORIENTED_EDGE('',*,*,#269,.T.);
#271=EDGE_LOOP('',(#251,#252,#253,#254,#263,#270));
#272=FACE_BOUND('',#271,.T.);
#273=ADVANCED_FACE('',(#272),#243,.T.);
#274=CARTESIAN_POINT('',(0.,0.,-19.8));
#275=DIRECTION('',(0.,-0.,1.));
#276=DIRECTION('',(0.,1.,0.));
#277=AXIS2_PLACEMENT_3D('',#274,#275,#276);
#278=CYLINDRICAL_SURFACE('',#277,14.75);
#279=CARTESIAN_POINT('',(-0.,-14.75,-20.6));
#280=VERTEX_POINT('',#279);
#281=CARTESIAN_POINT('',(-0.,-14.75,-19.5));
#282=DIRECTION('',(-0.,-0.,-1.));
#283=VECTOR('',#282,1.1);
#284=LINE('',#281,#283);
#285=EDGE_CURVE('',#256,#280,#284,.T.);
#286=ORIENTED_EDGE('',*,*,#285,.T.);
#287=CARTESIAN_POINT('',(0.,14.75,-20.6));
#288=VERTEX_POINT('',#287);
#289=CARTESIAN_POINT('',(0.,0.,-20.6));
#290=DIRECTION('',(0.,-0.,1.));
#291=DIRECTION('',(0.,1.,0.));
#292=AXIS2_PLACEMENT_3D('',#289,#290,#291);
#293=CIRCLE('',#292,14.75);
#294=EDGE_CURVE('',#280,#288,#293,.T.);
#295=ORIENTED_EDGE('',*,*,#294,.T.);
#296=CARTESIAN_POINT('',(-14.75,0.,-20.6));
#297=VERTEX_POINT('',#296);
#298=CARTESIAN_POINT('',(0.,0.,-20.6));
#299=DIRECTION('',(0.,-0.,1.));
#300=DIRECTION('',(0.,1.,0.));
#301=AXIS2_PLACEMENT_3D('',#298,#299,#300);
#302=CIRCLE('',#301,14.75);
#303=EDGE_CURVE('',#288,#297,#302,.T.);
#304=ORIENTED_EDGE('',*,*,#303,.T.);
#305=CARTESIAN_POINT('',(0.,0.,-20.6));
#306=DIRECTION('',(0.,-0.,1.));
#307=DIRECTION('',(0.,1.,0.));
#308=AXIS2_PLACEMENT_3D('',#305,#306,#307);
#309=CIRCLE('',#308,14.75);
#310=EDGE_CURVE('',#297,#280,#309,.T.);
#311=ORIENTED_EDGE('',*,*,#310,.T.);
#312=ORIENTED_EDGE('',*,*,#285,.F.);
#313=ORIENTED_EDGE('',*,*,#262,.F.);
#314=ORIENTED_EDGE('',*,*,#269,.F.);
#315=EDGE_LOOP('',(#286,#295,#304,#311,#312,#313,#314));
#316=FACE_BOUND('',#315,.T.);
#317=ADVANCED_FACE('',(#316),#278,.T.);
#318=CARTESIAN_POINT('',(0.,-0.,0.));
#319=DIRECTION('',(0.,0.,-1.));
#320=DIRECTION('',(0.,-1.,-0.));
#321=AXIS2_PLACEMENT_3D('',#318,#319,#320);
#322=CONICAL_SURFACE('',#321,14.,45.);
#323=CARTESIAN_POINT('',(0.,14.,0.));
#324=VERTEX_POINT('',#323);
#325=CARTESIAN_POINT('',(-0.,14.,0.));
#326=DIRECTION('',(-0.,0.707106781,-0.707106781));
#327=VECTOR('',#326,1.414213562);
#328=LINE('',#325,#327);
#329=EDGE_CURVE('',#324,#86,#328,.T.);
#330=ORIENTED_EDGE('',*,*,#329,.T.);
#331=ORIENTED_EDGE('',*,*,#92,.T.);
#332=ORIENTED_EDGE('',*,*,#99,.T.);
#333=ORIENTED_EDGE('',*,*,#329,.F.);
#334=CARTESIAN_POINT('',(0.,-0.,-0.));
#335=DIRECTION('',(0.,0.,-1.));
#336=DIRECTION('',(0.,-1.,-0.));
#337=AXIS2_PLACEMENT_3D('',#334,#335,#336);
#338=CIRCLE('',#337,14.);
#339=EDGE_CURVE('',#324,#324,#338,.T.);
#340=ORIENTED_EDGE('',*,*,#339,.T.);
#341=EDGE_LOOP('',(#330,#331,#332,#333,#340));
#342=FACE_BOUND('',#341,.T.);
#343=ADVANCED_FACE('',(#342),#322,.T.);
#344=CARTESIAN_POINT('',(0.,7.5,0.));
#345=DIRECTION('',(0.,-0.,1.));
#346=DIRECTION('',(0.,1.,0.));
#347=AXIS2_PLACEMENT_3D('',#344,#345,#346);
#348=PLANE('',#347);
#349=ORIENTED_EDGE('',*,*,#339,.F.);
#350=EDGE_LOOP('',(#349));
#351=FACE_BOUND('',#350,.T.);
#352=ADVANCED_FACE('',(#351),#348,.T.);
#353=CARTESIAN_POINT('',(0.,0.,-21.));
#354=DIRECTION('',(0.,-0.,-1.));
#355=DIRECTION('',(0.,-1.,0.));
#356=AXIS2_PLACEMENT_3D('',#353,#354,#355);
#357=CONICAL_SURFACE('',#356,18.5,45.);
#358=CARTESIAN_POINT('',(0.,18.5,-21.));
#359=VERTEX_POINT('',#358);
#360=CARTESIAN_POINT('',(-0.,20.,-22.5));
#361=VERTEX_POINT('',#360);
#362=CARTESIAN_POINT('',(-0.,18.5,-21.));
#363=DIRECTION('',(-0.,0.707106781,-0.707106781));
#364=VECTOR('',#363,2.121320344);
#365=LINE('',#362,#364);
#366=EDGE_CURVE('',#359,#361,#365,.T.);
#367=ORIENTED_EDGE('',*,*,#366,.T.);
#368=CARTESIAN_POINT('',(-0.,-20.,-22.5));
#369=VERTEX_POINT('',#368);
#370=CARTESIAN_POINT('',(0.,0.,-22.5));
#371=DIRECTION('',(0.,0.,1.));
#372=DIRECTION('',(0.,-1.,0.));
#373=AXIS2_PLACEMENT_3D('',#370,#371,#372);
#374=CIRCLE('',#373,20.);
#375=EDGE_CURVE('',#361,#369,#374,.T.);
#376=ORIENTED_EDGE('',*,*,#375,.T.);
#377=CARTESIAN_POINT('',(0.,0.,-22.5));
#378=DIRECTION('',(0.,0.,1.));
#379=DIRECTION('',(0.,-1.,0.));
#380=AXIS2_PLACEMENT_3D('',#377,#378,#379);
#381=CIRCLE('',#380,20.);
#382=EDGE_CURVE('',#369,#361,#381,.T.);
#383=ORIENTED_EDGE('',*,*,#382,.T.);
#384=ORIENTED_EDGE('',*,*,#366,.F.);
#385=CARTESIAN_POINT('',(0.,0.,-21.));
#386=DIRECTION('',(0.,-0.,-1.));
#387=DIRECTION('',(0.,-1.,0.));
#388=AXIS2_PLACEMENT_3D('',#385,#386,#387);
#389=CIRCLE('',#388,18.5);
#390=EDGE_CURVE('',#359,#359,#389,.T.);
#391=ORIENTED_EDGE('',*,*,#390,.T.);
#392=EDGE_LOOP('',(#367,#376,#383,#384,#391));
#393=FACE_BOUND('',#392,.T.);
#394=ADVANCED_FACE('',(#393),#357,.T.);
#395=CARTESIAN_POINT('',(0.,0.,-50.5));
#396=DIRECTION('',(0.,-0.,1.));
#397=DIRECTION('',(0.,1.,0.));
#398=AXIS2_PLACEMENT_3D('',#395,#396,#397);
#399=CYLINDRICAL_SURFACE('',#398,20.);
#400=CARTESIAN_POINT('',(-0.,-20.,-80.));
#401=VERTEX_POINT('',#400);
#402=CARTESIAN_POINT('',(-0.,-20.,-22.5));
#403=DIRECTION('',(-0.,-0.,-1.));
#404=VECTOR('',#403,57.5);
#405=LINE('',#402,#404);
#406=EDGE_CURVE('',#369,#401,#405,.T.);
#407=ORIENTED_EDGE('',*,*,#406,.T.);
#408=CARTESIAN_POINT('',(0.,20.,-80.));
#409=VERTEX_POINT('',#408);
#410=CARTESIAN_POINT('',(0.,0.,-80.));
#411=DIRECTION('',(0.,-0.,1.));
#412=DIRECTION('',(0.,1.,0.));
#413=AXIS2_PLACEMENT_3D('',#410,#411,#412);
#414=CIRCLE('',#413,20.);
#415=EDGE_CURVE('',#401,#409,#414,.T.);
#416=ORIENTED_EDGE('',*,*,#415,.T.);
#417=CARTESIAN_POINT('',(0.,0.,-80.));
#418=DIRECTION('',(0.,-0.,1.));
#419=DIRECTION('',(0.,1.,0.));
#420=AXIS2_PLACEMENT_3D('',#417,#418,#419);
#421=CIRCLE('',#420,20.);
#422=EDGE_CURVE('',#409,#401,#421,.T.);
#423=ORIENTED_EDGE('',*,*,#422,.T.);
#424=ORIENTED_EDGE('',*,*,#406,.F.);
#425=ORIENTED_EDGE('',*,*,#375,.F.);
#426=ORIENTED_EDGE('',*,*,#382,.F.);
#427=EDGE_LOOP('',(#407,#416,#423,#424,#425,#426));
#428=FACE_BOUND('',#427,.T.);
#429=ADVANCED_FACE('',(#428),#399,.T.);
#430=CARTESIAN_POINT('',(0.,17.575,-21.));
#431=DIRECTION('',(0.,0.,1.));
#432=DIRECTION('',(0.,1.,0.));
#433=AXIS2_PLACEMENT_3D('',#430,#431,#432);
#434=PLANE('',#433);
#435=CARTESIAN_POINT('',(-15.15,0.,-21.));
#436=VERTEX_POINT('',#435);
#437=CARTESIAN_POINT('',(0.,15.15,-21.));
#438=VERTEX_POINT('',#437);
#439=CARTESIAN_POINT('',(0.,0.,-21.));
#440=DIRECTION('',(0.,-0.,1.));
#441=DIRECTION('',(0.,1.,0.));
#442=AXIS2_PLACEMENT_3D('',#439,#440,#441);
#443=CIRCLE('',#442,15.15);
#444=EDGE_CURVE('',#436,#438,#443,.T.);
#445=ORIENTED_EDGE('',*,*,#444,.F.);
#446=CARTESIAN_POINT('',(0.,0.,-21.));
#447=DIRECTION('',(0.,-0.,1.));
#448=DIRECTION('',(0.,1.,0.));
#449=AXIS2_PLACEMENT_3D('',#446,#447,#448);
#450=CIRCLE('',#449,15.15);
#451=EDGE_CURVE('',#438,#436,#450,.T.);
#452=ORIENTED_EDGE('',*,*,#451,.F.);
#453=EDGE_LOOP('',(#445,#452));
#454=FACE_BOUND('',#453,.T.);
#455=ORIENTED_EDGE('',*,*,#390,.F.);
#456=EDGE_LOOP('',(#455));
#457=FACE_BOUND('',#456,.T.);
#458=ADVANCED_FACE('',(#454,#457),#434,.T.);
#459=CARTESIAN_POINT('',(0.,0.,-20.6));
#460=DIRECTION('',(0.,0.,1.));
#461=DIRECTION('',(1.,0.,-0.));
#462=AXIS2_PLACEMENT_3D('',#459,#460,#461);
#463=TOROIDAL_SURFACE('',#462,15.15,0.4);
#464=CARTESIAN_POINT('',(-15.15,0.,-20.6));
#465=DIRECTION('',(-0.,-1.,-0.));
#466=DIRECTION('',(-1.,0.,0.));
#467=AXIS2_PLACEMENT_3D('',#464,#465,#466);
#468=CIRCLE('',#467,0.4);
#469=EDGE_CURVE('',#436,#297,#468,.T.);
#470=ORIENTED_EDGE('',*,*,#469,.F.);
#471=ORIENTED_EDGE('',*,*,#444,.T.);
#472=ORIENTED_EDGE('',*,*,#451,.T.);
#473=ORIENTED_EDGE('',*,*,#469,.T.);
#474=ORIENTED_EDGE('',*,*,#303,.F.);
#475=ORIENTED_EDGE('',*,*,#294,.F.);
#476=ORIENTED_EDGE('',*,*,#310,.F.);
#477=EDGE_LOOP('',(#470,#471,#472,#473,#474,#475,#476));
#478=FACE_BOUND('',#477,.T.);
#479=ADVANCED_FACE('',(#478),#463,.F.);
#480=CARTESIAN_POINT('',(0.,0.,-4.125));
#481=DIRECTION('',(0.,-0.,1.));
#482=DIRECTION('',(0.,1.,0.));
#483=AXIS2_PLACEMENT_3D('',#480,#481,#482);
#484=CYLINDRICAL_SURFACE('',#483,14.3);
#485=CARTESIAN_POINT('',(-0.,-14.3,-3.25));
#486=DIRECTION('',(-0.,-0.,-1.));
#487=VECTOR('',#486,1.75);
#488=LINE('',#485,#487);
#489=EDGE_CURVE('',#112,#216,#488,.T.);
#490=ORIENTED_EDGE('',*,*,#489,.T.);
#491=ORIENTED_EDGE('',*,*,#224,.T.);
#492=ORIENTED_EDGE('',*,*,#231,.T.);
#493=ORIENTED_EDGE('',*,*,#489,.F.);
#494=ORIENTED_EDGE('',*,*,#118,.F.);
#495=ORIENTED_EDGE('',*,*,#125,.F.);
#496=EDGE_LOOP('',(#490,#491,#492,#493,#494,#495));
#497=FACE_BOUND('',#496,.T.);
#498=ADVANCED_FACE('',(#497),#484,.T.);
#499=CARTESIAN_POINT('',(0.,10.,-80.));
#500=DIRECTION('',(0.,0.,-1.));
#501=DIRECTION('',(0.,-1.,0.));
#502=AXIS2_PLACEMENT_3D('',#499,#500,#501);
#503=PLANE('',#502);
#504=ORIENTED_EDGE('',*,*,#415,.F.);
#505=ORIENTED_EDGE('',*,*,#422,.F.);
#506=EDGE_LOOP('',(#504,#505));
#507=FACE_BOUND('',#506,.T.);
#508=ADVANCED_FACE('',(#507),#503,.T.);
#509=CLOSED_SHELL('',(#68,#103,#132,#174,#209,#238,#273,#317,#343,#352,#394,#429,#458,#479,#498,#508));
#510=MANIFOLD_SOLID_BREP('alibrePartClosedBody',#509);
#511=COLOUR_RGB('',0.882352948,0.882352948,0.882352948);
#512=FILL_AREA_STYLE_COLOUR('',#511);
#513=FILL_AREA_STYLE('',(#512));
#514=SURFACE_STYLE_FILL_AREA(#513);
#515=SURFACE_SIDE_STYLE('',(#514));
#516=SURFACE_STYLE_USAGE(.BOTH.,#515);
#517=PRESENTATION_STYLE_ASSIGNMENT((#516));
#26=STYLED_ITEM('',(#517),#510);
#16=SHAPE_REPRESENTATION('8230 BF-FF 30 Ballscrew End Machining Floating side',(#15),#10);
#17=ADVANCED_BREP_SHAPE_REPRESENTATION('8230 BF-FF 30 Ballscrew End Machining Floating side',(#510),#10);
#525=SHAPE_REPRESENTATION_RELATIONSHIP('','',#16,#17);
#526=CARTESIAN_POINT('',(0.,0.,0.));
#527=DIRECTION('',(0.,0.,1.));
#528=DIRECTION('',(1.,0.,0.));
#529=AXIS2_PLACEMENT_3D('',#526,#527,#528);
#531=MAPPED_ITEM('',#530,#529);
#530=REPRESENTATION_MAP(#529,#16);
#532=APPLICATION_CONTEXT('Managed model based 3d engineering');
#533=APPLICATION_PROTOCOL_DEFINITION('international standard','ap242_managed_model_based_3d_engineering',2013,#532);
#534=PRODUCT_CONTEXT('',#532,'mechanical');
#535=PRODUCT_DEFINITION_CONTEXT('part definition',#532,'design');
#24=PRODUCT('8230 BF-FF 30 Ballscrew End Machining Floating side','8230 BF-FF 30 Ballscrew End Machining Floating side','',(#534));
#536=PRODUCT_RELATED_PRODUCT_CATEGORY('part','',(#24));
#537=PRODUCT_DEFINITION_FORMATION_WITH_SPECIFIED_SOURCE('','',#24,.NOT_KNOWN.);
#25=PRODUCT_DEFINITION('design','',#537,#535);
#23=PRODUCT_DEFINITION_SHAPE('','',#25);
#538=SHAPE_DEFINITION_REPRESENTATION(#23,#16);
#11=DRAUGHTING_MODEL('',(#531),#10);
#1=MECHANICAL_DESIGN_GEOMETRIC_PRESENTATION_REPRESENTATION('',(#26),#10);
ENDSEC;
END-ISO-10303-21;
