ISO-10303-21;
HEADER;
/* Generated by software containing ST-Developer
 * from STEP Tools, Inc. (www.steptools.com) 
 */

FILE_DESCRIPTION(
/* description */ ('Alibre Inc.'),
/* implementation_level */ '2;1');

FILE_NAME(
/* name */ 'export0',
/* time_stamp */ '2011-06-24T09:49:05+02:00',
/* author */ (''),
/* organization */ (''),
/* preprocessor_version */ 'ST-DEVELOPER v12',
/* originating_system */ 'Alibre',
/* authorisation */ '');

FILE_SCHEMA (('CONFIG_CONTROL_DESIGN'));
ENDSEC;

DATA;
#10=MECHANICAL_CONTEXT('detailed design',#18,'mechanical');
#11=PRODUCT_RELATED_PRODUCT_CATEGORY('detail','',(#98));
#12=CC_DESIGN_SECURITY_CLASSIFICATION(#14,(#97));
#13=SECURITY_CLASSIFICATION_LEVEL('unclassified');
#14=SECURITY_CLASSIFICATION('name','Security for version',#13);
#15=SHAPE_DEFINITION_REPRESENTATION(#16,#677);
#16=PRODUCT_DEFINITION_SHAPE('','DefinitionDesc',#96);
#17=APPLICATION_PROTOCOL_DEFINITION('AP definition status',
'config_control_design',1994,#18);
#18=APPLICATION_CONTEXT(
'control the configuration of three dimensional design');
#19=DESIGN_CONTEXT('detailed design',#18,'design');
#20=PERSON_AND_ORGANIZATION_ROLE('creator');
#21=PERSON_AND_ORGANIZATION_ROLE('classification_officer');
#22=PERSON_AND_ORGANIZATION_ROLE('creator');
#23=PERSON_AND_ORGANIZATION_ROLE('design_supplier');
#24=PERSON_AND_ORGANIZATION_ROLE('design_owner');
#25=CC_DESIGN_PERSON_AND_ORGANIZATION_ASSIGNMENT(#57,#20,(#96));
#26=CC_DESIGN_PERSON_AND_ORGANIZATION_ASSIGNMENT(#60,#21,(#14));
#27=CC_DESIGN_PERSON_AND_ORGANIZATION_ASSIGNMENT(#61,#22,(#97));
#28=CC_DESIGN_PERSON_AND_ORGANIZATION_ASSIGNMENT(#62,#23,(#97));
#29=CC_DESIGN_PERSON_AND_ORGANIZATION_ASSIGNMENT(#63,#24,(#98));
#30=DATE_TIME_ROLE('creation_date');
#31=DATE_TIME_ROLE('classification_date');
#32=CC_DESIGN_DATE_AND_TIME_ASSIGNMENT(#86,#30,(#96));
#33=CC_DESIGN_DATE_AND_TIME_ASSIGNMENT(#89,#31,(#14));
#34=CC_DESIGN_APPROVAL(#93,(#96));
#35=CC_DESIGN_APPROVAL(#94,(#97));
#36=CC_DESIGN_APPROVAL(#95,(#14));
#37=APPROVAL_PERSON_ORGANIZATION(#56,#93,#64);
#38=APPROVAL_PERSON_ORGANIZATION(#58,#94,#65);
#39=APPROVAL_PERSON_ORGANIZATION(#59,#95,#66);
#40=ORGANIZATION('DEFINITION_APPROVEDBY_ORG_ID',
'DEFINITION_APPROVEDBY_ORG_NAME','DEFINITION_APPROVEDBY_ORG_DESCR');
#41=ORGANIZATION('DEF_CREATOR_ORG_ID','DEF_CREATOR_ORG_NAME',
'DEF_CREATOR_ORG_DESCR');
#42=ORGANIZATION('APPROVEDBY_ORG_ID','APPROVEDBY_ORG_NAME',
'APPROVEDBY_ORG_DESCR');
#43=ORGANIZATION('SECURITY_APPROVEDBY_ORG_ID',
'SECURITY_APPROVEDBY_ORG_NAME','SECURITY_APPROVEDBY_ORG_DESCR');
#44=ORGANIZATION('CLASSOFFICER_ORG_ID','CLASSOFFICER_ORG_NAME',
'CLASSOFFICER_ORG_DESCR');
#45=ORGANIZATION('CREATOR_ORG_ID','CREATOR_ORG_NAME','CREATOR_ORG_DESCR');
#46=ORGANIZATION('SUPPLIER_ORG_ID','SUPPLIER_ORG_NAME',
'SUPPLIER_ORG_DESCR');
#47=ORGANIZATION('OWNER_ORG_ID','OWNER_ORG_NAME','OWNER_ORG_DESCR');
#48=PERSON('DEFINITION_approverID','DEFINITION_APPROVEDBY_LASTNAME',
'DEFINITION_APPROVEDBY_FIRSTNAME',$,$,$);
#49=PERSON('DEF_createrID','DEF_CREATOR_LASTNAME',
'DEF_CREATOR_FIRSTNAME',$,$,$);
#50=PERSON('approverID','APPROVEDBY_LASTNAME','APPROVEDBY_FIRSTNAME',$,$,
$);
#51=PERSON('SECURITY_approverID','SECURITY_LASTNAME',
'SECURITY_APPROVEDBY_FIRSTNAME',$,$,$);
#52=PERSON('classifierID','CLASSOFFICER_LASTNAME',
'CLASSOFFICER_FIRSTNAME',$,$,$);
#53=PERSON('createrID','CREATOR_LASTNAME','CREATOR_FIRSTNAME',$,$,$);
#54=PERSON('supplierID','SUPPLIER_LASTNAME','SUPPLIER_FIRSTNAME',$,$,$);
#55=PERSON('ownerID','OWNER_LASTNAME','OWNER_FIRSTNAME',$,$,$);
#56=PERSON_AND_ORGANIZATION(#48,#40);
#57=PERSON_AND_ORGANIZATION(#49,#41);
#58=PERSON_AND_ORGANIZATION(#50,#42);
#59=PERSON_AND_ORGANIZATION(#51,#43);
#60=PERSON_AND_ORGANIZATION(#52,#44);
#61=PERSON_AND_ORGANIZATION(#53,#45);
#62=PERSON_AND_ORGANIZATION(#54,#46);
#63=PERSON_AND_ORGANIZATION(#55,#47);
#64=APPROVAL_ROLE('definition_approval');
#65=APPROVAL_ROLE('version_approval');
#66=APPROVAL_ROLE('security_approval');
#67=APPROVAL_DATE_TIME(#85,#93);
#68=APPROVAL_DATE_TIME(#87,#94);
#69=APPROVAL_DATE_TIME(#88,#95);
#70=COORDINATED_UNIVERSAL_TIME_OFFSET(1,0,.AHEAD.);
#71=COORDINATED_UNIVERSAL_TIME_OFFSET(1,0,.AHEAD.);
#72=COORDINATED_UNIVERSAL_TIME_OFFSET(1,0,.AHEAD.);
#73=COORDINATED_UNIVERSAL_TIME_OFFSET(1,0,.AHEAD.);
#74=COORDINATED_UNIVERSAL_TIME_OFFSET(1,0,.AHEAD.);
#75=LOCAL_TIME(8,34,10.,#70);
#76=LOCAL_TIME(8,34,10.,#71);
#77=LOCAL_TIME(8,34,10.,#72);
#78=LOCAL_TIME(8,34,10.,#73);
#79=LOCAL_TIME(8,34,10.,#74);
#80=CALENDAR_DATE(2009,31,7);
#81=CALENDAR_DATE(2009,31,7);
#82=CALENDAR_DATE(2009,31,7);
#83=CALENDAR_DATE(2009,31,7);
#84=CALENDAR_DATE(2009,31,7);
#85=DATE_AND_TIME(#80,#75);
#86=DATE_AND_TIME(#81,#76);
#87=DATE_AND_TIME(#82,#77);
#88=DATE_AND_TIME(#83,#78);
#89=DATE_AND_TIME(#84,#79);
#90=APPROVAL_STATUS('not_yet_approved');
#91=APPROVAL_STATUS('not_yet_approved');
#92=APPROVAL_STATUS('not_yet_approved');
#93=APPROVAL(#90,'defintion approval');
#94=APPROVAL(#91,'version approval');
#95=APPROVAL(#92,'security approval');
#96=PRODUCT_DEFINITION('DefinitionID','DefinitionDesc',#97,#19);
#97=PRODUCT_DEFINITION_FORMATION_WITH_SPECIFIED_SOURCE(
'PRODUCT_VERSION_ID','PRODUCT_VERSION_DESCR',#98,.NOT_KNOWN.);
#98=PRODUCT('830','DCNC Bearingblock','',(#10));
#99=(
LENGTH_UNIT()
NAMED_UNIT(*)
SI_UNIT(.CENTI.,.METRE.)
);
#100=(
NAMED_UNIT(*)
PLANE_ANGLE_UNIT()
SI_UNIT($,.RADIAN.)
);
#101=(
NAMED_UNIT(*)
SI_UNIT($,.STERADIAN.)
SOLID_ANGLE_UNIT()
);
#102=UNCERTAINTY_MEASURE_WITH_UNIT(LENGTH_MEASURE(1.E-006),$,
'DISTANCE_ACCURACY_VALUE',
'Maximum model space distance between geometric entities at asserted co
nnectivities');
#103=(
GEOMETRIC_REPRESENTATION_CONTEXT(3)
GLOBAL_UNCERTAINTY_ASSIGNED_CONTEXT($)
GLOBAL_UNIT_ASSIGNED_CONTEXT((#101,#100,#99))
REPRESENTATION_CONTEXT('ID1','3D')
);
#104=VECTOR('',#653,1.);
#105=VECTOR('',#654,1.);
#106=VECTOR('',#655,1.);
#107=VECTOR('',#656,1.);
#108=VECTOR('',#658,1.);
#109=VECTOR('',#659,1.);
#110=VECTOR('',#660,1.);
#111=VECTOR('',#662,1.);
#112=VECTOR('',#663,1.);
#113=VECTOR('',#664,1.);
#114=VECTOR('',#666,1.);
#115=VECTOR('',#667,1.);
#116=LINE('',#550,#104);
#117=LINE('',#553,#105);
#118=LINE('',#555,#106);
#119=LINE('',#557,#107);
#120=LINE('',#559,#108);
#121=LINE('',#561,#109);
#122=LINE('',#563,#110);
#123=LINE('',#565,#111);
#124=LINE('',#567,#112);
#125=LINE('',#569,#113);
#126=LINE('',#571,#114);
#127=LINE('',#572,#115);
#128=PLANE('',#473);
#129=PLANE('',#477);
#130=PLANE('',#478);
#131=PLANE('',#479);
#132=PLANE('',#480);
#133=PLANE('',#481);
#134=PLANE('',#482);
#135=CYLINDRICAL_SURFACE('',#440,0.33235);
#136=CYLINDRICAL_SURFACE('',#444,0.33235);
#137=CYLINDRICAL_SURFACE('',#448,0.2067);
#138=CYLINDRICAL_SURFACE('',#452,0.2067);
#139=CYLINDRICAL_SURFACE('',#456,0.2067);
#140=CYLINDRICAL_SURFACE('',#458,0.425);
#141=CYLINDRICAL_SURFACE('',#461,0.425);
#142=CYLINDRICAL_SURFACE('',#464,0.425);
#143=CYLINDRICAL_SURFACE('',#467,0.425);
#144=CYLINDRICAL_SURFACE('',#470,1.5);
#145=CYLINDRICAL_SURFACE('',#475,1.275);
#146=CIRCLE('',#439,0.33235);
#147=CIRCLE('',#441,0.33235);
#148=CIRCLE('',#443,0.33235);
#149=CIRCLE('',#445,0.33235);
#150=CIRCLE('',#447,0.2067);
#151=CIRCLE('',#449,0.2067);
#152=CIRCLE('',#451,0.2067);
#153=CIRCLE('',#453,0.2067);
#154=CIRCLE('',#455,0.2067);
#155=CIRCLE('',#457,0.2067);
#156=CIRCLE('',#459,0.425);
#157=CIRCLE('',#460,0.425);
#158=CIRCLE('',#462,0.425);
#159=CIRCLE('',#463,0.425);
#160=CIRCLE('',#465,0.425);
#161=CIRCLE('',#466,0.425);
#162=CIRCLE('',#468,0.425);
#163=CIRCLE('',#469,0.425);
#164=CIRCLE('',#471,1.5);
#165=CIRCLE('',#472,1.5);
#166=CIRCLE('',#474,1.275);
#167=CIRCLE('',#476,1.275);
#168=EDGE_CURVE('',#326,#326,#146,.T.);
#169=EDGE_CURVE('',#327,#327,#147,.T.);
#170=EDGE_CURVE('',#329,#329,#148,.T.);
#171=EDGE_CURVE('',#330,#330,#149,.T.);
#172=EDGE_CURVE('',#332,#332,#150,.T.);
#173=EDGE_CURVE('',#333,#333,#151,.T.);
#174=EDGE_CURVE('',#335,#335,#152,.T.);
#175=EDGE_CURVE('',#336,#336,#153,.T.);
#176=EDGE_CURVE('',#338,#338,#154,.T.);
#177=EDGE_CURVE('',#339,#339,#155,.T.);
#178=EDGE_CURVE('',#340,#340,#156,.T.);
#179=EDGE_CURVE('',#341,#341,#157,.T.);
#180=EDGE_CURVE('',#342,#342,#158,.T.);
#181=EDGE_CURVE('',#343,#343,#159,.T.);
#182=EDGE_CURVE('',#344,#344,#160,.T.);
#183=EDGE_CURVE('',#345,#345,#161,.T.);
#184=EDGE_CURVE('',#346,#346,#162,.T.);
#185=EDGE_CURVE('',#347,#347,#163,.T.);
#186=EDGE_CURVE('',#348,#348,#164,.T.);
#187=EDGE_CURVE('',#349,#349,#165,.T.);
#188=EDGE_CURVE('',#350,#350,#166,.T.);
#189=EDGE_CURVE('',#351,#351,#167,.T.);
#190=EDGE_CURVE('',#352,#353,#116,.T.);
#191=EDGE_CURVE('',#354,#353,#117,.T.);
#192=EDGE_CURVE('',#354,#355,#118,.T.);
#193=EDGE_CURVE('',#355,#352,#119,.T.);
#194=EDGE_CURVE('',#353,#356,#120,.T.);
#195=EDGE_CURVE('',#357,#356,#121,.T.);
#196=EDGE_CURVE('',#357,#354,#122,.T.);
#197=EDGE_CURVE('',#356,#358,#123,.T.);
#198=EDGE_CURVE('',#359,#358,#124,.T.);
#199=EDGE_CURVE('',#359,#357,#125,.T.);
#200=EDGE_CURVE('',#358,#352,#126,.T.);
#201=EDGE_CURVE('',#355,#359,#127,.T.);
#202=ORIENTED_EDGE('',*,*,#168,.T.);
#203=ORIENTED_EDGE('',*,*,#168,.F.);
#204=ORIENTED_EDGE('',*,*,#169,.F.);
#205=ORIENTED_EDGE('',*,*,#170,.T.);
#206=ORIENTED_EDGE('',*,*,#170,.F.);
#207=ORIENTED_EDGE('',*,*,#171,.F.);
#208=ORIENTED_EDGE('',*,*,#172,.T.);
#209=ORIENTED_EDGE('',*,*,#172,.F.);
#210=ORIENTED_EDGE('',*,*,#173,.F.);
#211=ORIENTED_EDGE('',*,*,#174,.T.);
#212=ORIENTED_EDGE('',*,*,#174,.F.);
#213=ORIENTED_EDGE('',*,*,#175,.F.);
#214=ORIENTED_EDGE('',*,*,#176,.T.);
#215=ORIENTED_EDGE('',*,*,#176,.F.);
#216=ORIENTED_EDGE('',*,*,#177,.F.);
#217=ORIENTED_EDGE('',*,*,#178,.F.);
#218=ORIENTED_EDGE('',*,*,#179,.F.);
#219=ORIENTED_EDGE('',*,*,#180,.F.);
#220=ORIENTED_EDGE('',*,*,#181,.F.);
#221=ORIENTED_EDGE('',*,*,#182,.F.);
#222=ORIENTED_EDGE('',*,*,#183,.F.);
#223=ORIENTED_EDGE('',*,*,#184,.F.);
#224=ORIENTED_EDGE('',*,*,#185,.F.);
#225=ORIENTED_EDGE('',*,*,#186,.F.);
#226=ORIENTED_EDGE('',*,*,#187,.F.);
#227=ORIENTED_EDGE('',*,*,#188,.F.);
#228=ORIENTED_EDGE('',*,*,#186,.T.);
#229=ORIENTED_EDGE('',*,*,#188,.T.);
#230=ORIENTED_EDGE('',*,*,#189,.F.);
#231=ORIENTED_EDGE('',*,*,#190,.T.);
#232=ORIENTED_EDGE('',*,*,#191,.F.);
#233=ORIENTED_EDGE('',*,*,#192,.T.);
#234=ORIENTED_EDGE('',*,*,#193,.T.);
#235=ORIENTED_EDGE('',*,*,#194,.T.);
#236=ORIENTED_EDGE('',*,*,#195,.F.);
#237=ORIENTED_EDGE('',*,*,#196,.T.);
#238=ORIENTED_EDGE('',*,*,#191,.T.);
#239=ORIENTED_EDGE('',*,*,#169,.T.);
#240=ORIENTED_EDGE('',*,*,#171,.T.);
#241=ORIENTED_EDGE('',*,*,#197,.T.);
#242=ORIENTED_EDGE('',*,*,#198,.F.);
#243=ORIENTED_EDGE('',*,*,#199,.T.);
#244=ORIENTED_EDGE('',*,*,#195,.T.);
#245=ORIENTED_EDGE('',*,*,#200,.T.);
#246=ORIENTED_EDGE('',*,*,#193,.F.);
#247=ORIENTED_EDGE('',*,*,#201,.T.);
#248=ORIENTED_EDGE('',*,*,#198,.T.);
#249=ORIENTED_EDGE('',*,*,#173,.T.);
#250=ORIENTED_EDGE('',*,*,#175,.T.);
#251=ORIENTED_EDGE('',*,*,#177,.T.);
#252=ORIENTED_EDGE('',*,*,#179,.T.);
#253=ORIENTED_EDGE('',*,*,#181,.T.);
#254=ORIENTED_EDGE('',*,*,#183,.T.);
#255=ORIENTED_EDGE('',*,*,#185,.T.);
#256=ORIENTED_EDGE('',*,*,#187,.T.);
#257=ORIENTED_EDGE('',*,*,#190,.F.);
#258=ORIENTED_EDGE('',*,*,#200,.F.);
#259=ORIENTED_EDGE('',*,*,#197,.F.);
#260=ORIENTED_EDGE('',*,*,#194,.F.);
#261=ORIENTED_EDGE('',*,*,#178,.T.);
#262=ORIENTED_EDGE('',*,*,#180,.T.);
#263=ORIENTED_EDGE('',*,*,#182,.T.);
#264=ORIENTED_EDGE('',*,*,#184,.T.);
#265=ORIENTED_EDGE('',*,*,#189,.T.);
#266=ORIENTED_EDGE('',*,*,#201,.F.);
#267=ORIENTED_EDGE('',*,*,#192,.F.);
#268=ORIENTED_EDGE('',*,*,#196,.F.);
#269=ORIENTED_EDGE('',*,*,#199,.F.);
#270=EDGE_LOOP('',(#202));
#271=EDGE_LOOP('',(#203));
#272=EDGE_LOOP('',(#204));
#273=EDGE_LOOP('',(#205));
#274=EDGE_LOOP('',(#206));
#275=EDGE_LOOP('',(#207));
#276=EDGE_LOOP('',(#208));
#277=EDGE_LOOP('',(#209));
#278=EDGE_LOOP('',(#210));
#279=EDGE_LOOP('',(#211));
#280=EDGE_LOOP('',(#212));
#281=EDGE_LOOP('',(#213));
#282=EDGE_LOOP('',(#214));
#283=EDGE_LOOP('',(#215));
#284=EDGE_LOOP('',(#216));
#285=EDGE_LOOP('',(#217));
#286=EDGE_LOOP('',(#218));
#287=EDGE_LOOP('',(#219));
#288=EDGE_LOOP('',(#220));
#289=EDGE_LOOP('',(#221));
#290=EDGE_LOOP('',(#222));
#291=EDGE_LOOP('',(#223));
#292=EDGE_LOOP('',(#224));
#293=EDGE_LOOP('',(#225));
#294=EDGE_LOOP('',(#226));
#295=EDGE_LOOP('',(#227));
#296=EDGE_LOOP('',(#228));
#297=EDGE_LOOP('',(#229));
#298=EDGE_LOOP('',(#230));
#299=EDGE_LOOP('',(#231,#232,#233,#234));
#300=EDGE_LOOP('',(#235,#236,#237,#238));
#301=EDGE_LOOP('',(#239));
#302=EDGE_LOOP('',(#240));
#303=EDGE_LOOP('',(#241,#242,#243,#244));
#304=EDGE_LOOP('',(#245,#246,#247,#248));
#305=EDGE_LOOP('',(#249));
#306=EDGE_LOOP('',(#250));
#307=EDGE_LOOP('',(#251));
#308=EDGE_LOOP('',(#252));
#309=EDGE_LOOP('',(#253));
#310=EDGE_LOOP('',(#254));
#311=EDGE_LOOP('',(#255));
#312=EDGE_LOOP('',(#256));
#313=EDGE_LOOP('',(#257,#258,#259,#260));
#314=EDGE_LOOP('',(#261));
#315=EDGE_LOOP('',(#262));
#316=EDGE_LOOP('',(#263));
#317=EDGE_LOOP('',(#264));
#318=EDGE_LOOP('',(#265));
#319=EDGE_LOOP('',(#266,#267,#268,#269));
#320=VERTEX_LOOP('',#325);
#321=VERTEX_LOOP('',#328);
#322=VERTEX_LOOP('',#331);
#323=VERTEX_LOOP('',#334);
#324=VERTEX_LOOP('',#337);
#325=VERTEX_POINT('',#484);
#326=VERTEX_POINT('',#486);
#327=VERTEX_POINT('',#489);
#328=VERTEX_POINT('',#491);
#329=VERTEX_POINT('',#493);
#330=VERTEX_POINT('',#496);
#331=VERTEX_POINT('',#498);
#332=VERTEX_POINT('',#500);
#333=VERTEX_POINT('',#503);
#334=VERTEX_POINT('',#505);
#335=VERTEX_POINT('',#507);
#336=VERTEX_POINT('',#510);
#337=VERTEX_POINT('',#512);
#338=VERTEX_POINT('',#514);
#339=VERTEX_POINT('',#517);
#340=VERTEX_POINT('',#520);
#341=VERTEX_POINT('',#522);
#342=VERTEX_POINT('',#525);
#343=VERTEX_POINT('',#527);
#344=VERTEX_POINT('',#530);
#345=VERTEX_POINT('',#532);
#346=VERTEX_POINT('',#535);
#347=VERTEX_POINT('',#537);
#348=VERTEX_POINT('',#540);
#349=VERTEX_POINT('',#542);
#350=VERTEX_POINT('',#545);
#351=VERTEX_POINT('',#548);
#352=VERTEX_POINT('',#551);
#353=VERTEX_POINT('',#552);
#354=VERTEX_POINT('',#554);
#355=VERTEX_POINT('',#556);
#356=VERTEX_POINT('',#560);
#357=VERTEX_POINT('',#562);
#358=VERTEX_POINT('',#566);
#359=VERTEX_POINT('',#568);
#360=FACE_BOUND('',#320,.T.);
#361=FACE_BOUND('',#270,.T.);
#362=FACE_BOUND('',#271,.T.);
#363=FACE_BOUND('',#272,.T.);
#364=FACE_BOUND('',#321,.T.);
#365=FACE_BOUND('',#273,.T.);
#366=FACE_BOUND('',#274,.T.);
#367=FACE_BOUND('',#275,.T.);
#368=FACE_BOUND('',#322,.T.);
#369=FACE_BOUND('',#276,.T.);
#370=FACE_BOUND('',#277,.T.);
#371=FACE_BOUND('',#278,.T.);
#372=FACE_BOUND('',#323,.T.);
#373=FACE_BOUND('',#279,.T.);
#374=FACE_BOUND('',#280,.T.);
#375=FACE_BOUND('',#281,.T.);
#376=FACE_BOUND('',#324,.T.);
#377=FACE_BOUND('',#282,.T.);
#378=FACE_BOUND('',#283,.T.);
#379=FACE_BOUND('',#284,.T.);
#380=FACE_BOUND('',#285,.T.);
#381=FACE_BOUND('',#286,.T.);
#382=FACE_BOUND('',#287,.T.);
#383=FACE_BOUND('',#288,.T.);
#384=FACE_BOUND('',#289,.T.);
#385=FACE_BOUND('',#290,.T.);
#386=FACE_BOUND('',#291,.T.);
#387=FACE_BOUND('',#292,.T.);
#388=FACE_BOUND('',#293,.T.);
#389=FACE_BOUND('',#294,.T.);
#390=FACE_BOUND('',#295,.T.);
#391=FACE_BOUND('',#296,.T.);
#392=FACE_BOUND('',#297,.T.);
#393=FACE_BOUND('',#298,.T.);
#394=FACE_BOUND('',#299,.T.);
#395=FACE_BOUND('',#300,.T.);
#396=FACE_BOUND('',#301,.T.);
#397=FACE_BOUND('',#302,.T.);
#398=FACE_BOUND('',#303,.T.);
#399=FACE_BOUND('',#304,.T.);
#400=FACE_BOUND('',#305,.T.);
#401=FACE_BOUND('',#306,.T.);
#402=FACE_BOUND('',#307,.T.);
#403=FACE_BOUND('',#308,.T.);
#404=FACE_BOUND('',#309,.T.);
#405=FACE_BOUND('',#310,.T.);
#406=FACE_BOUND('',#311,.T.);
#407=FACE_BOUND('',#312,.T.);
#408=FACE_BOUND('',#313,.T.);
#409=FACE_BOUND('',#314,.T.);
#410=FACE_BOUND('',#315,.T.);
#411=FACE_BOUND('',#316,.T.);
#412=FACE_BOUND('',#317,.T.);
#413=FACE_BOUND('',#318,.T.);
#414=FACE_BOUND('',#319,.T.);
#415=ADVANCED_FACE('',(#360,#361),#670,.F.);
#416=ADVANCED_FACE('',(#362,#363),#135,.F.);
#417=ADVANCED_FACE('',(#364,#365),#671,.F.);
#418=ADVANCED_FACE('',(#366,#367),#136,.F.);
#419=ADVANCED_FACE('',(#368,#369),#672,.F.);
#420=ADVANCED_FACE('',(#370,#371),#137,.F.);
#421=ADVANCED_FACE('',(#372,#373),#673,.F.);
#422=ADVANCED_FACE('',(#374,#375),#138,.F.);
#423=ADVANCED_FACE('',(#376,#377),#674,.F.);
#424=ADVANCED_FACE('',(#378,#379),#139,.F.);
#425=ADVANCED_FACE('',(#380,#381),#140,.F.);
#426=ADVANCED_FACE('',(#382,#383),#141,.F.);
#427=ADVANCED_FACE('',(#384,#385),#142,.F.);
#428=ADVANCED_FACE('',(#386,#387),#143,.F.);
#429=ADVANCED_FACE('',(#388,#389),#144,.F.);
#430=ADVANCED_FACE('',(#390,#391),#128,.F.);
#431=ADVANCED_FACE('',(#392,#393),#145,.F.);
#432=ADVANCED_FACE('',(#394),#129,.T.);
#433=ADVANCED_FACE('',(#395),#130,.T.);
#434=ADVANCED_FACE('',(#396,#397,#398),#131,.T.);
#435=ADVANCED_FACE('',(#399),#132,.T.);
#436=ADVANCED_FACE('',(#400,#401,#402,#403,#404,#405,#406,#407,#408),#133,
 .T.);
#437=ADVANCED_FACE('',(#409,#410,#411,#412,#413,#414),#134,.F.);
#438=AXIS2_PLACEMENT_3D('',#483,#575,#576);
#439=AXIS2_PLACEMENT_3D('',#485,#577,#578);
#440=AXIS2_PLACEMENT_3D('',#487,#579,#580);
#441=AXIS2_PLACEMENT_3D('',#488,#581,#582);
#442=AXIS2_PLACEMENT_3D('',#490,#583,#584);
#443=AXIS2_PLACEMENT_3D('',#492,#585,#586);
#444=AXIS2_PLACEMENT_3D('',#494,#587,#588);
#445=AXIS2_PLACEMENT_3D('',#495,#589,#590);
#446=AXIS2_PLACEMENT_3D('',#497,#591,#592);
#447=AXIS2_PLACEMENT_3D('',#499,#593,#594);
#448=AXIS2_PLACEMENT_3D('',#501,#595,#596);
#449=AXIS2_PLACEMENT_3D('',#502,#597,#598);
#450=AXIS2_PLACEMENT_3D('',#504,#599,#600);
#451=AXIS2_PLACEMENT_3D('',#506,#601,#602);
#452=AXIS2_PLACEMENT_3D('',#508,#603,#604);
#453=AXIS2_PLACEMENT_3D('',#509,#605,#606);
#454=AXIS2_PLACEMENT_3D('',#511,#607,#608);
#455=AXIS2_PLACEMENT_3D('',#513,#609,#610);
#456=AXIS2_PLACEMENT_3D('',#515,#611,#612);
#457=AXIS2_PLACEMENT_3D('',#516,#613,#614);
#458=AXIS2_PLACEMENT_3D('',#518,#615,#616);
#459=AXIS2_PLACEMENT_3D('',#519,#617,#618);
#460=AXIS2_PLACEMENT_3D('',#521,#619,#620);
#461=AXIS2_PLACEMENT_3D('',#523,#621,#622);
#462=AXIS2_PLACEMENT_3D('',#524,#623,#624);
#463=AXIS2_PLACEMENT_3D('',#526,#625,#626);
#464=AXIS2_PLACEMENT_3D('',#528,#627,#628);
#465=AXIS2_PLACEMENT_3D('',#529,#629,#630);
#466=AXIS2_PLACEMENT_3D('',#531,#631,#632);
#467=AXIS2_PLACEMENT_3D('',#533,#633,#634);
#468=AXIS2_PLACEMENT_3D('',#534,#635,#636);
#469=AXIS2_PLACEMENT_3D('',#536,#637,#638);
#470=AXIS2_PLACEMENT_3D('',#538,#639,#640);
#471=AXIS2_PLACEMENT_3D('',#539,#641,#642);
#472=AXIS2_PLACEMENT_3D('',#541,#643,#644);
#473=AXIS2_PLACEMENT_3D('',#543,#645,$);
#474=AXIS2_PLACEMENT_3D('',#544,#646,#647);
#475=AXIS2_PLACEMENT_3D('',#546,#648,#649);
#476=AXIS2_PLACEMENT_3D('',#547,#650,#651);
#477=AXIS2_PLACEMENT_3D('',#549,#652,$);
#478=AXIS2_PLACEMENT_3D('',#558,#657,$);
#479=AXIS2_PLACEMENT_3D('',#564,#661,$);
#480=AXIS2_PLACEMENT_3D('',#570,#665,$);
#481=AXIS2_PLACEMENT_3D('',#573,#668,$);
#482=AXIS2_PLACEMENT_3D('',#574,#669,$);
#483=CARTESIAN_POINT('',(-2.,-0.9,1.));
#484=CARTESIAN_POINT('',(-2.,-0.70030397326619,1.));
#485=CARTESIAN_POINT('',(-2.,-0.9,1.));
#486=CARTESIAN_POINT('',(-2.,-0.9,1.33235));
#487=CARTESIAN_POINT('',(-2.,-3.,1.));
#488=CARTESIAN_POINT('',(-2.,-3.,1.));
#489=CARTESIAN_POINT('',(-2.,-3.,1.33235));
#490=CARTESIAN_POINT('',(2.,-0.9,1.));
#491=CARTESIAN_POINT('',(2.,-0.70030397326619,1.));
#492=CARTESIAN_POINT('',(2.,-0.9,1.));
#493=CARTESIAN_POINT('',(2.,-0.9,1.33235));
#494=CARTESIAN_POINT('',(2.,-3.,1.));
#495=CARTESIAN_POINT('',(2.,-3.,1.));
#496=CARTESIAN_POINT('',(2.,-3.,1.33235));
#497=CARTESIAN_POINT('',(-1.558845726812,0.899999999999985,0.5));
#498=CARTESIAN_POINT('',(-1.558845726812,0.899999999999985,0.375802110047003));
#499=CARTESIAN_POINT('',(-1.558845726812,0.899999999999985,0.5));
#500=CARTESIAN_POINT('',(-1.558845726812,1.10669999999999,0.5));
#501=CARTESIAN_POINT('',(-1.558845726812,0.899999999999985,2.));
#502=CARTESIAN_POINT('',(-1.558845726812,0.899999999999985,2.));
#503=CARTESIAN_POINT('',(-1.558845726812,1.10669999999999,2.));
#504=CARTESIAN_POINT('',(1.55884572681199,0.900000000000007,0.5));
#505=CARTESIAN_POINT('',(1.55884572681199,0.900000000000007,0.375802110047003));
#506=CARTESIAN_POINT('',(1.55884572681199,0.900000000000007,0.5));
#507=CARTESIAN_POINT('',(1.55884572681199,1.10670000000001,0.5));
#508=CARTESIAN_POINT('',(1.55884572681199,0.900000000000007,2.));
#509=CARTESIAN_POINT('',(1.55884572681199,0.900000000000007,2.));
#510=CARTESIAN_POINT('',(1.55884572681199,1.10670000000001,2.));
#511=CARTESIAN_POINT('',(4.18135944339345E-017,-1.8,0.5));
#512=CARTESIAN_POINT('',(4.18135944339345E-017,-1.8,0.375802110047003));
#513=CARTESIAN_POINT('',(4.18135944339345E-017,-1.8,0.5));
#514=CARTESIAN_POINT('',(4.18135944339345E-017,-1.5933,0.5));
#515=CARTESIAN_POINT('',(4.18135944339345E-017,-1.8,2.));
#516=CARTESIAN_POINT('',(4.18135944339345E-017,-1.8,2.));
#517=CARTESIAN_POINT('',(4.18135944339345E-017,-1.5933,2.));
#518=CARTESIAN_POINT('',(-3.,-2.,2.));
#519=CARTESIAN_POINT('',(-3.,-2.,0.));
#520=CARTESIAN_POINT('',(-3.,-1.575,0.));
#521=CARTESIAN_POINT('',(-3.,-2.,2.));
#522=CARTESIAN_POINT('',(-3.,-1.575,2.));
#523=CARTESIAN_POINT('',(3.,-2.,2.));
#524=CARTESIAN_POINT('',(3.,-2.,0.));
#525=CARTESIAN_POINT('',(3.,-1.575,0.));
#526=CARTESIAN_POINT('',(3.,-2.,2.));
#527=CARTESIAN_POINT('',(3.,-1.575,2.));
#528=CARTESIAN_POINT('',(3.,2.,2.));
#529=CARTESIAN_POINT('',(3.,2.,0.));
#530=CARTESIAN_POINT('',(3.,2.425,0.));
#531=CARTESIAN_POINT('',(3.,2.,2.));
#532=CARTESIAN_POINT('',(3.,2.425,2.));
#533=CARTESIAN_POINT('',(-3.,2.,2.));
#534=CARTESIAN_POINT('',(-3.,2.,0.));
#535=CARTESIAN_POINT('',(-3.,2.425,0.));
#536=CARTESIAN_POINT('',(-3.,2.,2.));
#537=CARTESIAN_POINT('',(-3.,2.425,2.));
#538=CARTESIAN_POINT('',(4.18135944339345E-017,0.,2.));
#539=CARTESIAN_POINT('',(4.18135944339345E-017,0.,0.57));
#540=CARTESIAN_POINT('',(4.18135944339345E-017,1.5,0.57));
#541=CARTESIAN_POINT('',(4.18135944339345E-017,0.,2.));
#542=CARTESIAN_POINT('',(4.18135944339345E-017,1.5,2.));
#543=CARTESIAN_POINT('',(4.18135944339345E-017,0.,0.57));
#544=CARTESIAN_POINT('',(4.18135944339345E-017,0.,0.57));
#545=CARTESIAN_POINT('',(1.97950904546288E-016,-1.275,0.57));
#546=CARTESIAN_POINT('',(4.18135944339345E-017,0.,2.));
#547=CARTESIAN_POINT('',(4.18135944339345E-017,0.,0.));
#548=CARTESIAN_POINT('',(4.18135944339345E-017,1.275,0.));
#549=CARTESIAN_POINT('',(0.,3.,0.));
#550=CARTESIAN_POINT('',(4.,3.,2.));
#551=CARTESIAN_POINT('',(-4.,3.,2.));
#552=CARTESIAN_POINT('',(4.,3.,2.));
#553=CARTESIAN_POINT('',(4.,3.,0.));
#554=CARTESIAN_POINT('',(4.,3.,0.));
#555=CARTESIAN_POINT('',(4.,3.,0.));
#556=CARTESIAN_POINT('',(-4.,3.,0.));
#557=CARTESIAN_POINT('',(-4.,3.,0.));
#558=CARTESIAN_POINT('',(4.,0.,0.));
#559=CARTESIAN_POINT('',(4.,-3.,2.));
#560=CARTESIAN_POINT('',(4.,-3.,2.));
#561=CARTESIAN_POINT('',(4.,-3.,0.));
#562=CARTESIAN_POINT('',(4.,-3.,0.));
#563=CARTESIAN_POINT('',(4.,-3.,0.));
#564=CARTESIAN_POINT('',(0.,-3.,0.));
#565=CARTESIAN_POINT('',(-4.,-3.,2.));
#566=CARTESIAN_POINT('',(-4.,-3.,2.));
#567=CARTESIAN_POINT('',(-4.,-3.,0.));
#568=CARTESIAN_POINT('',(-4.,-3.,0.));
#569=CARTESIAN_POINT('',(-4.,-3.,0.));
#570=CARTESIAN_POINT('',(-4.,0.,0.));
#571=CARTESIAN_POINT('',(-4.,3.,2.));
#572=CARTESIAN_POINT('',(-4.,3.,0.));
#573=CARTESIAN_POINT('',(4.18135944339345E-017,0.,2.));
#574=CARTESIAN_POINT('',(4.18135944339345E-017,0.,0.));
#575=DIRECTION('',(0.,-1.,0.));
#576=DIRECTION('',(0.,0.,0.33235));
#577=DIRECTION('',(0.,-1.,0.));
#578=DIRECTION('',(0.,0.,0.33235));
#579=DIRECTION('',(0.,1.,0.));
#580=DIRECTION('',(0.,0.,0.33235));
#581=DIRECTION('',(0.,1.,0.));
#582=DIRECTION('',(0.,0.,0.33235));
#583=DIRECTION('',(0.,-1.,0.));
#584=DIRECTION('',(0.,0.,0.33235));
#585=DIRECTION('',(0.,-1.,0.));
#586=DIRECTION('',(0.,0.,0.33235));
#587=DIRECTION('',(0.,1.,0.));
#588=DIRECTION('',(0.,0.,0.33235));
#589=DIRECTION('',(0.,1.,0.));
#590=DIRECTION('',(0.,0.,0.33235));
#591=DIRECTION('',(0.,0.,1.));
#592=DIRECTION('',(0.,0.2067,0.));
#593=DIRECTION('',(0.,0.,1.));
#594=DIRECTION('',(0.,0.2067,0.));
#595=DIRECTION('',(0.,0.,-1.));
#596=DIRECTION('',(0.,0.2067,0.));
#597=DIRECTION('',(0.,0.,-1.));
#598=DIRECTION('',(0.,0.2067,0.));
#599=DIRECTION('',(0.,0.,1.));
#600=DIRECTION('',(0.,0.2067,0.));
#601=DIRECTION('',(0.,0.,1.));
#602=DIRECTION('',(0.,0.2067,0.));
#603=DIRECTION('',(0.,0.,-1.));
#604=DIRECTION('',(0.,0.2067,0.));
#605=DIRECTION('',(0.,0.,-1.));
#606=DIRECTION('',(0.,0.2067,0.));
#607=DIRECTION('',(0.,0.,1.));
#608=DIRECTION('',(0.,0.2067,0.));
#609=DIRECTION('',(0.,0.,1.));
#610=DIRECTION('',(0.,0.2067,0.));
#611=DIRECTION('',(0.,0.,-1.));
#612=DIRECTION('',(0.,0.2067,0.));
#613=DIRECTION('',(0.,0.,-1.));
#614=DIRECTION('',(0.,0.2067,0.));
#615=DIRECTION('',(0.,0.,-1.));
#616=DIRECTION('',(0.,0.425,0.));
#617=DIRECTION('',(0.,0.,1.));
#618=DIRECTION('',(0.,0.425,0.));
#619=DIRECTION('',(0.,0.,-1.));
#620=DIRECTION('',(0.,0.425,0.));
#621=DIRECTION('',(0.,0.,-1.));
#622=DIRECTION('',(0.,0.425,0.));
#623=DIRECTION('',(0.,0.,1.));
#624=DIRECTION('',(0.,0.425,0.));
#625=DIRECTION('',(0.,0.,-1.));
#626=DIRECTION('',(0.,0.425,0.));
#627=DIRECTION('',(0.,0.,-1.));
#628=DIRECTION('',(0.,0.425,0.));
#629=DIRECTION('',(0.,0.,1.));
#630=DIRECTION('',(0.,0.425,0.));
#631=DIRECTION('',(0.,0.,-1.));
#632=DIRECTION('',(0.,0.425,0.));
#633=DIRECTION('',(0.,0.,-1.));
#634=DIRECTION('',(0.,0.425,0.));
#635=DIRECTION('',(0.,0.,1.));
#636=DIRECTION('',(0.,0.425,0.));
#637=DIRECTION('',(0.,0.,-1.));
#638=DIRECTION('',(0.,0.425,0.));
#639=DIRECTION('',(0.,0.,-1.));
#640=DIRECTION('',(0.,1.5,0.));
#641=DIRECTION('',(0.,0.,1.));
#642=DIRECTION('',(0.,1.5,0.));
#643=DIRECTION('',(0.,0.,-1.));
#644=DIRECTION('',(0.,1.5,0.));
#645=DIRECTION('',(0.,0.,-1.));
#646=DIRECTION('',(0.,0.,1.));
#647=DIRECTION('',(0.,1.275,0.));
#648=DIRECTION('',(0.,0.,-1.));
#649=DIRECTION('',(0.,1.275,0.));
#650=DIRECTION('',(0.,0.,1.));
#651=DIRECTION('',(0.,1.275,0.));
#652=DIRECTION('',(0.,1.,0.));
#653=DIRECTION('',(1.,0.,0.));
#654=DIRECTION('',(0.,0.,1.));
#655=DIRECTION('',(-1.,0.,0.));
#656=DIRECTION('',(0.,0.,1.));
#657=DIRECTION('',(1.,0.,0.));
#658=DIRECTION('',(0.,-1.,0.));
#659=DIRECTION('',(0.,0.,1.));
#660=DIRECTION('',(0.,1.,0.));
#661=DIRECTION('',(0.,-1.,0.));
#662=DIRECTION('',(-1.,0.,0.));
#663=DIRECTION('',(0.,0.,1.));
#664=DIRECTION('',(1.,0.,0.));
#665=DIRECTION('',(-1.,0.,0.));
#666=DIRECTION('',(0.,1.,0.));
#667=DIRECTION('',(0.,-1.,0.));
#668=DIRECTION('',(0.,0.,1.));
#669=DIRECTION('',(0.,0.,1.));
#670=CONICAL_SURFACE('',#438,0.33235,1.02974425867666);
#671=CONICAL_SURFACE('',#442,0.33235,1.02974425867666);
#672=CONICAL_SURFACE('',#446,0.2067,1.02974425867666);
#673=CONICAL_SURFACE('',#450,0.2067,1.02974425867666);
#674=CONICAL_SURFACE('',#454,0.2067,1.02974425867666);
#675=CLOSED_SHELL('',(#415,#416,#417,#418,#419,#420,#421,#422,#423,#424,
#425,#426,#427,#428,#429,#430,#431,#432,#433,#434,#435,#436,#437));
#676=MANIFOLD_SOLID_BREP('',#675);
#677=ADVANCED_BREP_SHAPE_REPRESENTATION('',(#676),#103);
ENDSEC;
END-ISO-10303-21;
